Song name
# A B C D E F G H I J K L M N O P Q R S T U V W X Y Z

Bayside - Montauk Acoustic tab

BAYSIDE
Montauk (Acoustic) Tab
Tuning: Dd Standard

tabbed by: AndrewAdams
ataproxax@yahoo.com


Please note: I didn't provide the strumming, except for the intro.

o--------------------------o
|         OVERVIEW         |
o--------------------------o
| GUITAR ONE - RHYTHM      |
o--------------------------o
|[4x] Intro                |
|[2x] Verse One            |
|[1x] Verse One to Chorus  |
|[2x] Chorus               |
|[1x] Chorus to Verse Two  |
|[1x] Verse Two            |
|[2x] Chorus               |
|[1x] Solo                 |
|[4x] Chorus               |
|[1x] Ending               |
o--------------------------o


========
-INTRO-
========
|-0---0---0--*-0---0--*-0--*-0---0--*0---0---0---0---0--0--0--*-0--0--*-0----|
|-0---0---0--*-0---0--*-0--*-0---0--*0---0---0---0---0--0--0--*-0--0--*-0----|
|-9---9---9--*-9---9--*-9--*-9---9--*9---9---9---9---9--9--9--*-9--9--*-9----|
|-11--11--11-*-11--11-*-11-*-11--11-*11--11--11--11--9--9--9--*-9--9--*-9----|
|----------------------------------------------------7--7--7--*-7--7--*-7----|
|----------------------------------------------------------------------------|

|-0--0--*-0--0--0-|
|-0--0--*-0--0--0-| [REPEAT FOUR TIMES]
|-9--9--*-9--9--9-|
|-6--6--*-6--6--6-|
|-7--7--*-7--7--7-|
|-----------------|

========
-VERSE-
========

|-------------------------|
|-------------------------|
|----9--8--8----9---------| [REPEAT TWO TIMES]
|-7--9--9--9-10-11--4-2-6-|
|-7--7--9--9-10-11--4-2-6-|
|-5-----7--7-8--9---2-0-4-|


=================
-VERSE TO CHORUS-
=================

|-0--|
|-7--|
|-5--|
|----|
|----|
|----|


========
-CHORUS-
========

|-5--2--2--0--4--|
|-6--2--2--1--4--|
|-5--3--4--2--6--| [REPEAT TWO TIMES]
|-5--4--4--2--5--|
|-4--4--2--0--5--|
|----2-----0--4--|


===================
-CHORUS TO VERSE 2-
===================

|--------|
|----9---|
|9---9---|
|11--11--|
|--------|
|--------|

========
-VERSE2-
========

|-------------------------|
|-------------------------|
|----9--8--8----9---------|
|-7--9--9--9-10-11--4-2-6-|
|-7--7--9--9-10-11--4-2-6-|
|-5-----7--7-8--9---2-0-4-|

|-------------------------|
|-------------------------|
|----9--8--8----9---------|
|-7--9--9--9-10-11--4-2-6-|
|-7--7--9--9-10-11--4-2-6-|
|-5-----7--7-8--9---2-0-4-|
  .  .  .

========
-CHORUS-
========

|-5--2--2--0--4--|
|-6--2--2--1--4--|
|-5--3--4--2--6--| [REPEAT TWO TIMES]
|-5--4--4--2--5--|
|-4--4--2--0--5--|
|----2-----0--4--|


======
-SOLO-
======

|--------------------------------------------------------------------|
|-14----14----14----14----14----14--12----12----12----12----12----12-|
|---13----13----13----13----13--------13----13----13----13----13-----|
|-----11----11----11----11----11--------14----14----14----14---14----|
|--------------------------------------------------------------------|
|--------------------------------------------------------------------|

|-------------------------------------------------------------------|
|-10----10----10----10----10----10---9-----9-----9-----9-----9-----9|
|---11----11----11----11----11--------11----11----11----11----11----| [REPEAT 2X]
|-----12----12----12----12----12--------10----10----10----10---10---|
|-------------------------------------------------------------------|
|-------------------------------------------------------------------|

|-0---0---0---0--|
|-14--12--10--9--|
|-13--13--11--11-|
|-11--14--12--10-|
|----------------|
|----------------|

|-0---0---0---0---0--|
|-14--12--10--9---9--|
|-13--13--11--11--11-|
|-11--14--12--10--10-|
|--------------------|
|--------------------|


========
-CHORUS-
========

|-5--2--2--0--4--|
|-6--2--2--1--4--|
|-5--3--4--2--6--| [REPEAT FOUR TIMES]
|-5--4--4--2--5--|
|-4--4--2--0--5--|
|----2-----0--4--|

========
-ENDING-
========
|--4~--|
|--5~--|
|6-6~--|
|6-6~--|
|4-4~--|
|------|


o--------------------------o
|         OVERVIEW         |
o--------------------------o
| GUITAR TWO - LEAD        |
o--------------------------o
|[1x] Intro Pt.1           |
|[2x] Intro Pt.2           |
|[1x] Verse One            |
|[1x] Verse One to Chorus  |
|[2x] Chorus               |
|[1x] Chorus to Verse Two  |
|[1x] Verse Two            |
|[2x] Chorus               |
|[1x] Solo                 |
|[2x] Breakdown            |
|[2x] Chorus               |
o--------------------------o

=============
[INTRO PT. 1]
=============

|-----|
|-----|
|-/9~-|(Comes in the 2nd time rhythm intro is played)
|-----|
|-----|
|-----|

=============
[INTRO PT. 2]
=============

|------------------------------------------------|
|------------------------------------------------|
|-9--8----11--9--8--9--8----11--9--8--9--8-------|
|------11----------------11----------------11--9-| [REPEAT 2x]
|------------------------------------------------|
|------------------------------------------------|

===========
-VERSE ONE-
===========

|-------0--0--0-0--0----------|
|---10--9--0--0-0--0----------|
|---9---9--8--8-9--9----------|
|-7-7---9--9--9-10-11--4-2-6--|
|----------9--9-10-11--4-2-6--|
|----------------------2-0-4--|

|-------0--0-----------------|
|---10--9--0-----------------|
|---9---9--8--8-11-9---------|
|-7-7---9--9----------4-2-6--|
|----------9--6-9--7--4-2-6--|
|---------------------2-0-4--|

========
-CHORUS-
========

|-5--2--2---------------------|
|-6--2--2---------------------|
|-5--3--4--9--8--9--11--9--8--|
|-5--4--4---------------------| [REPEAT TWO]
|-4--4--2--7--6--7--9---7--6--|
|----2------------------------|

===========
-VERSE TWO-
===========

|-------0--0--0-0--0----------|
|---10--9--0--0-0--0----------|
|---9---9--8--8-9--9----------|
|-7-7---9--9--9-10-11--4-2-6--|
|----------9--9-10-11--4-2-6--|
|----------------------2-0-4--|

|-------0--0-----------------|
|---10--9--0-----------------|
|---9---9--8--8-11-9---------|
|-7-7---9--9----------4-2-6--|
|----------9--6-9--7--4-2-6--|
|---------------------2-0-4--|
    .   .  .

========
-CHORUS-
========

|-5--2--2---------------------|
|-6--2--2---------------------|
|-5--3--4--9--8--9--11--9--8--|
|-5--4--4---------------------| [REPEAT TWO]
|-4--4--2--7--6--7--9---7--6--|
|----2------------------------|

======
-SOLO-
======

|---------------------------------------------------------------------|
|-------------------------------7--9-7---10-9-7-9-7-------------------|
|6---6-8-9-6-8-6----6-------8-9--------9-------------9-8-9-11-9-8-6---|
|--9--------------9---9-7-6-----------------------------------------9-|
|---------------------------------------------------------------------|
|---------------------------------------------------------------------|

|---------------------------------------------------------------------------|
|---------------------------------------------------------------------------|
|-----6-----7-6----6-7-9-7-6----------------5-----6-5---5-6-5-6-8-9-8-9-5-6-|
|-7-9---9-7-----7------------9-7-h9-p7-p6-7---7-6-----6---------------------|
|---------------------------------------------------------------------------|
|---------------------------------------------------------------------------|

|--------------------12----12-14--14^-----12-h14-p12-----------------------------|
|------14------12-14----14-------------14------------h14-------------------------|
|/13------------------------------------------------------11-9----9--11-11^-9----|
|--------------------------------------------------------------11-------------11-|
|--------------------------------------------------------------------------------|
|--------------------------------------------------------------------------------|

|------------------------------------------------------------------------------------------|
|-------------14----16----17-----16----17----16----14--------17--19---21---19--21--19--17--|
|/13--131313-----13----13----13-----13----13----13----161616---16---16---16--16--16--16----|
|------------------------------------------------------------------------------------------|
|------------------------------------------------------------------------------------------|
|------------------------------------------------------------------------------------------|

|------------------------------------------16----------------------|
|-------12-14-/16-14-16-/17-16-17-/19-17-19--19-17-16--------------|
|141414----------------------------------------------18-17---------|
|----------------------------------------------------------18------|
|------------------------------------------------------------------|
|------------------------------------------------------------------|

|----16----16----16----16----16--|
|------19^---19^---19^---19^-----|
|--------------------------------|
|-18-----------------------------|
|--------------------------------|
|--------------------------------|

===========
-BREAKDOWN-
===========

|-5------------2--2---------------------|
|-6------------2--2---------------------|
|-5------------3--4--9--8--9--11--9--8--|
|-5------------4--4---------------------| (REPEAT TWICE)
|-4-6h7-6-4-2--4--2--7--6--7--9---7--6--|
|--------------2------------------------|

========
-CHORUS-
========

|-5--2--2---------------------|
|-6--2--2---------------------|
|-5--3--4--9--8--9--11--9--8--|
|-5--4--4---------------------| [REPEAT TWO]
|-4--4--2--7--6--7--9---7--6--|
|----2------------------------|



^ - Bend
h - Hammer on
p - Pull off
. - Palm mute
/ - Slide up
* - Stop string
x - Mute string
~ - Let ring
Tap to rate this tab
# A B C D E F G H I J K L M N O P Q R S T U V W X Y Z