Song name
# A B C D E F G H I J K L M N O P Q R S T U V W X Y Z

Bayside - Hello Shitty tab

this song is really really short and easy and the other tab was right but you dont have 
tune full step down to play it
just drop d

intro
e-------------|
b-------------|
g-------------|
dX-X-X-X-X-X--|
aX-X-X-X-X-X--|
dX-X-X-X-X-X--|


verse1
e-----------------------------------------------------------------------|
b-----------------------------------------------------------------------|
g---------------------4-------------------5---------4-------------------|
d-0---------4---------4--x16----5---------5--x16----4--x16----2---------|
a-0--x16----4--x16----2---------5--x16----3---------2---------2--x16----|
D-0---------4-------------------5-----------------------------2---------|


e-----------|
b-----------|
g-2---------|
d-2--x16----|
a-0---------|
d-----------|

interlude
e-------------------------------|
b-------------------------------|
g-------------------------------|
d-9--9-9-9-9----5--5-5-5-5----7-|
a-9--9-9-9-9----5--5-5-5-5----7-|
d-9--9-9-9-9----5--5-5-5-5----7-|


e-----------|
b-----------|
g-----------|
d-7---------|
a-7--x16----|
d-7---------|


Chorus (is strummed slower than verse)
e-------------------------------------|
b-------------------------------------|
g-------------------------------------|
d-9--------5--------0--------7--------|
a-9--x8----5--x8----0--x8----7--x8----|
d-9--------5--------0--------7--------|

before outro
e-----------|
b-----------|
g-----------|
d-7---------|
a-7--x16----|
d-7---------|

outro
e-----------------|
b-----------------|
g-----------------|
d-0-0--------5b---|
a-0-0--------5b---|
d-0-0--------5----|


order:
intro
verse1
interlude
verse1
interlude
chorus X2
before outro
outro
Tap to rate this tab
 
# A B C D E F G H I J K L M N O P Q R S T U V W X Y Z