Song name
# A B C D E F G H I J K L M N O P Q R S T U V W X Y Z

Bayside - Dont Call Me Peanutsolo tab

I just created this after not being able to find a solo for this song anywhere.
It playing during the break down part, with the chords:
Am, Dm, G, C, G7.

Detune ALL strings.
I can in now way garauntee it being correct, because i did it without listening to
the music, only from playing the chords, and remembering just about how it goes,
if you ave suggestions, please email me paul.taylor1990@btinternet.com!


D---------------------------------------------------7-----------8------|
A------------------------------------------------8-----------8---------|
F--------------------------------9--8--7-7----7-----------7------------|
C----------/10---7------10---7-----------------------------------------|
G----------------------------------------------------------------------|
D----------------------------------------------------------------------|


D----------8--7------------10---12---10---8-----------------------------|
A----------------10----8----------------------10-----10-----------------|
F-----------------------------------------------------------------------|
C-----------------------------------------------------------------------|
G-----------------------------------------------------------------------|
D-----------------------------------------------------------------------|

D-------12--11--10-------10----------5--4--3-----|
A------------------------------------------------|
F------------------------------------------------|
C------------------------------------------------|
G------------------------------------------------|
D------------------------------------------------|


D----------8--7------------10---12---10---8-------5--|
A----------------10----8-----------------------------|
F----------------------------------------------------|
C----------------------------------------------------|
G----------------------------------------------------|
D----------------------------------------------------|

Remember, it's only a roughish guide, i know i missed out a bit,
But i just can't remember it right now!
Tap to rate this tab
# A B C D E F G H I J K L M N O P Q R S T U V W X Y Z