Song name
# A B C D E F G H I J K L M N O P Q R S T U V W X Y Z

Bayside - Just Enough To Love You tab

just enough to love you by Bayside
This song is amazing and there were no tabs out for it so i made one myself. Im not sure 
half of it but try it out.

Intro
E------------|
B------------|
G-------12---|
D----10------|
A-10---------|
D------------| (X4)

E------------|
B------------|
G---12~------|
D------------|
A------------|
D------------|

Verse 1 jack’s part (x8)
E-----3-3-----3-----------|
B---3—-3—3---3------------|
G-5-------5-5-------------|
D-------------------------|
A-------------------------|
D-------------------------|
Anthony’s part (x4)
E------------------------------------------------------|
B------------------------------------------------------|
G-77777777-1010------55555555-8888---------------------|
D-77777777-1010-5555-55555555-8888-3333----------------|
A-55555555-8888-5555-33333333-6666-3333----------------|
D---------------5555---------------3333----------------|
  ........ .... .... ........ .... ....
Post verse (you taught me that…)
E-------------------------------------------|
B-------------------------------------------|
G-7p6p4-5---7---9---77/9-9/11-11/13---------|
D-------5---7---9---xxxx-xxxx-xxxxx---------|
A-------3---5---7---55/7-77/9-99/11---------|
D-------------------------------------------|

E-------------------------------------------|
B-------------------------------------------|
G--5---7---9---77/9-9/11-11/13--------------|
D--5---7---9---xxxx-xxxx-xxxxx--------------|
A--3---5---7---55/7-77/9-99/11--------------|
D-------------------------------------------|

Jack’s (x2) listen for when to play this
E-7-----7------7------7--------7p6--------------------|
B—--5-----5------5-------5---------5---7/9/11/13------|
G-----5-----5------5-------5---------5----------------|
D-----------------------------------------------------|
A-----------------------------------------------------|
D-----------------------------------------------------|


Bridge
E--------------------------------|
B--------------------------------|
G-77-10---------55-88------------|
D-77-10-5555555-55-88-333333-----|
A-55-88-5555555-33-66-333333-----|
D-------5555555-------333333-----|
             ..           ..
E-------------------------------|
B-------------------------------|
G-77-10----------- 55-88--------|
D-77-10-5555555-55-88-3~--------|
A-55-88-5555555-33-66-3~--------|
D-------- 5555555---------3~----|
                          …..

Verse 2 im not sure how many times to play this
Rhythm part (not sure if its right)
E----------------------------------------------------------------|
B----------------------------------------------------------------|
G-10p9-10p9-10p9-10p9-10p9-10p9-12p9-12p9-12p9-------------------|
D----------------------------------------------------------------|
A----------------------------------------------------------------|
D----------------------------------------------------------------|
                                             join with rhythm here
Lead part                                     \/\/\/\/\/
E ------------------------------------------------------------------|
B---------------------------------------------10p9-12p9-------------|
G-9-7-5------8-6-4------9-7-5-----8-6-4-----------------------------|
D-9-7-5------8-6-4------9-7-5-----8-6-4-----------------------------|
A-7-5-3------6-4-2------7-5-3-----6-4-2-----------------------------|
D-------------------------------------------------------------------|


Chorus
Anthony’s part (x4)
E----------------------------------------|
B----------------------------------------|
G----------------------------------------|
D-33-333-77-777-55-555-88-888------------|
A-33-333-77-777-55-555-88-888------------|
D-33-333-77-777-55-555-88-888------------|

Jack’s (x4)
E--------------------------------------------|
B--------------------------------------------|
G-99-999-11-111-77-777-1313-131313-----------|
D-xx-xxx-xx-xxx-xx-xxx-xxxx-xxxxxx-----------|
A-77-777-99-999-55-555-1111-111111-----------|
D--------------------------------------------|
___________________________
E-------------------|
B-------------------|
G-77-99-5—5\\\\-----|
D-77-99-5—5\\\\-----|
A-55-77-5—5\\\\-----|
D-------5—5\\\\-----|
__________________________
Verse 3
 Jack’s part (x4) listen for it
E-----3---3-------3----|
B---3—3—3---3----------|
G-5------------5-------|
D----------------------|
A----------------------|
D----------------------|
Anthony’s part (x2)
E-----------------------------------------------------|
B-----------------------------------------------------|
G-77777777-1010------55555555-8888--------------------|
D-77777777-1010-5555-55555555-8888-3333---------------|
A-55555555-8888-5555-33333333-6666-3333---------------|
D---------------5555---------------3333---------------|
  .....................................

E-----------------------------------------------------| (X2)
B-----------------------------------------------------|
G-777~777~-1010------555~555~-8888--------------------|
D-777~777~-1010-5555-555~555~-8888-3333---------------|
A-555~555~-8888-5555-333~333~-6666-3333---------------|
D---------------5555---------------3333---------------|
  ..  .. ..............  ..  ...........

Interlude (Im not sure if any of this is right)
E----------------------------------------|(X2)
B---9----9-----9------9------------------|
G----6-----6-----6------6-6h7p6----------|
D-8----8-----8------8--------------------|
A----------------------------------------|
D----------------------------------------|
E----------------------------------------|(X2)
B---7----7-----7------7------------------|
G----4-----4-----4-----4-4h5p4-----------|
D-5----5-----5------5--------------------|
A----------------------------------------|
D----------------------------------------|

E-7-----7-----7-----7-----7-----------|
B---5-----5-----5-----5-----5---------|
G-----5-----5-----5-----5-----5-------|
D-------------------------------------|
A-------------------------------------|
D-------------------------------------|

E-7-----7-----7-----7-----7--------|
B---5-----5-----5-----5-----5------|
G-----5-----5-----5-----5-----5----|
D----------------------------------|
A----------------------------------|
D----------------------------------|

E-----7----7-----7----7----7----|
B---5----5-----5----5----5------|
G-5----5-----5----5----5--------|
D-------------------------------|
A-------------------------------|
D-------------------------------|

E-----7----7-----7----7----7----|
B---5----5-----5----5----5------|
G-5----5-----5----5----5--------|
D-------------------------------|
A-------------------------------|
D-------------------------------|

Anthony’s part
E---------------------------------------|
B---------------------------------------|
G-7~-7~-------9~-9~---------------------|
D-7~-7~-5~-5~-9~-9~-3~-3~---------------|
A-5~-5~-5~-5~-7~-7~-3~-3~---------------|
D-------5~-5~-------3~-3~---------------|


Solo (x2)
Jack’s
E--------------------------------------------------|
B-6p5-2h3p2p0-(X7)-2h3p2-2h3p2p0-------------------|
G--------------------------------------------------|
D--------------------------------------------------|
A--------------------------------------------------|
D--------------------------------------------------|

Anthony’s
E---------------------------------------|
B---------------------------------------|
G-55~-555---------77~-777---------------|
D-55~-555-55~-555-77~-777-33-55---------|
A-33~-333-55~-555-55~-555-33-55---------|
D---------55~-555---------33-55---------|

Outro
Jack’s
E-------------------------------| (x8)
B-------------------------------|
G-99-911-1113--131515-----------|
D-xx-xxx-xxxxx-xxxxxx-----------|
A-77-799-91111-111313-----------|
D-------------------------------|
Anthony’s (I’m not sure about his part here)
E-------------------------------| (X8)
B-------------------------------|
G-------------------------------|
D-77-799-91010-101111-----------|
A-77-799-91010-101111-----------|
D-77-799-91010-101111-----------|

Both
E---------------------|
B---------------------|
G---------------------|
D-33-333333—7~--------|
A-33-333333—7~--------|
D-33-333333—7~--------|
  .. ......
Tap to rate this tab
# A B C D E F G H I J K L M N O P Q R S T U V W X Y Z