Song name
# A B C D E F G H I J K L M N O P Q R S T U V W X Y Z

Bayside - Megan Acoustic tab

Help us improve GuitareTab! Take a short survey!
this is the acoustic version of the smoking popes song 'megan' by bayside. its an 
song and sounds reli good acoustic
im not completly sure if its right but it sounds pretty close throughout the song. this 
only the guitar part for guitar one and not the fingerpicking over the top.

Title - Megan
Band - Bayside
Tabbed by XionResolute

1 chord is 1 beat unless it has ~ when its held for longer
eg. -77- would be 2 beats
    -77-
    -55-

Intro
--------------------------|
|-------------------------|
|-------------------------|
|--------------------7----|
|-7~--7~--4~--2------7----|
|-7~--7~--4~--2-2-0--5----|
|-5~--4~--2~--0------5----|

|-------------------------------|
|-------------------------------|
|-------------------------7777--|
|-7777--7777--4444--2222--7777--|
|-7777--7777--4444--2222--5555--|
|-5555--4444--2222--0000--5555--|

Verse
------

|-------------------------------|
|-------------------------------|
|-------------------------7777--|   x2
|-7777--7777--4444--2222--7777--|
|-7777--7777--4444--2222--5555--|
|-5555--4444--2222--0000--5555--|

Butter on a summer day
When she's around
I was on the tracks
When the gates came down
When suddenly I recognized
Those bloodshot rearview mirror eyes as mine

PreChorus
---------

|-----------------------|
|-----------------------|
|-----------------7766--|
|-9999--11111111--7777--|
|-9999--11111111--5555--|
|-7777--9-9-9-9---5555--|

And I heard that whistle call my name

Chorus
-------------------------------------|
|------------------------------------|
|------------------------------------|
|------7777-------------4444-77-99---|
|-4444-7777-77-77-55-44-4444-77-99---|
|-4444-5555-77-77-55-44-2222-55-77---|
|-2222-5555-55-44-33-22-2222-55-77---|

And I almost drove away
But Megan I had a feeling that you would be on that train
So I just waited there for you

Verse 2
--------

|-------------------------------|
|-------------------------------|
|-------------------------7777--|   x2
|-7777--7777--4444--2222--7777--|
|-7777--7777--4444--2222--5555--|
|-5555--4444--2222--0000--5555--|

Caught a ride to another town
Where the air was clean
And the sun never goes down
Everyone was standing in a line
Between the landing and the stairs

PreChorus
---------

|-----------------------|
|-----------------------|
|-----------------7766--|
|-9999--11111111--7777--|
|-9999--11111111--5555--|
|-7777--9-9-9-9---5555--|

I heard somebody call my name

Chorus
-------------------------------------|
|------------------------------------|
|------------------------------------|
|------7777-------------4444-77-99---|
|-4444-7777-77-77-55-44-4444-77-99---|
|-4444-5555-77-77-55-44-2222-55-77---|
|-2222-5555-55-44-33-22-2222-55-77---|

I almost climbed the stairs
But Megan I had a feeling that someday you'd meet me there
So I just waited there for you

Bridge
------

|----------------------------------|
|----------------------------------|
|------7777-------------4444-77-99-|
|-4444-7777-77-77-55-44-4444-77-99-|
|-4444-5555-77-77-55-44-2222-55-77-|
|-2222-5555-55-44-33-22-2222-55-77-|

Verse 3
-------------------------------------|
|------------------------------------|
|------------------------------------|
|-------------------------7777-------|   x2
|-7777--7777--4444--2222--7777-------|
|-7777--7777--4444--2222--5555-------|
|-5555--4444--2222--0000--5555-------|

Butter on a summer day
When I hear your name
It's a dream that never came true
So I sat down on the tracks
And waited for a train to take me back to you

PreChorus
---------

|-----------------------|
|-----------------------|
|-----------------7766--|
|-9999--11111111--7777--|
|-9999--11111111--5555--|
|-7777--9-9-9-9---5555--|


And somebody came and took my hand

Chorus
-------------------------------------|
|------------------------------------|
|------------------------------------|
|------777~-------------4444-77-99---|
|-4444-777~-77-77-55-44-4444-77-99---|
|-4444-555~-77-77-55-44-2222-55-77---|
|-2222-555~-55-44-33-22-2222-55-77---|

And I finally had to go
But Megan I just want you to know
That I waited as long as I could

Outro
-----
|----------------|
|----------------|
|----------------|
|-7~--7~--4~--7~-|
|-7~--7~--4~--7~-|
|-5~--4~--2~--5~-|

I'm butter on a summer day when she's around
Related for Megan Acoustic tab