Song name
# A B C D E F G H I J K L M N O P Q R S T U V W X Y Z

Bayside - Theyre Not Horses Theyre Unicorns tab

-----------------------------------------------------------------------------

		They're Not Horses, They're Unicorns - Bayside

-------------------------------------------------------------------------------
Tabbed by: Alex Barrera

Email: alexishxc1337@aol.com


*NOTE*: I made this tab before i knew Bayside plays in D Standard. Sorry.




*Update 6-11* Added lyrics over segments for easy reading.
*Update 6-12* Added second chorus fill, and beginning of bridge.
*Update 6-17* Added fills for bridge and main riff.
*Update 7-10* Fixed Prechorus.

This is a very basic tab, as you can tell, the fast bridge part and the fill in the
hasnt been tabbed yet.

I know Bayside does play in D Standard, but this is for anyone, like myself,
who tends to keep their guitar in E Standard or Drop D.

Tuning: Drop D

Intro:

e|---------------------------|
B|---------------------------|
G|---10-10-10-10---10\\\6-7--|
D|-0-x--x--x--x--0-x----x-x--|
A|-0-8--8--8--8--0-8----4-5--|
D|-0-------------0-----------|X2

Main riff fill:
e|------------------------|
B|-6~\\\------------------|
G|-------7-5-7-5----------|
D|---------------7-5------|
A|-------------------4b~--|
D|------------------------|

e|---------------------------|
B|---------------------------|
G|---10-10-10-10---10\\\6-7--|
D|-8-x--x--x--x--8-x----x-x--|
A|-8-8--8--8--8--8-8----4-5--|
D|-8-------------8-----------|

e|---------------------------|
B|---------------------------|
G|---10-10-10-10---10\\\6-7--|
D|-0-x--x--x--x--0-x----x-x--|
A|-0-8--8--8--8--0-8----4-5--|
D|-0-------------0-----------|

Verse:

"You're pulling out your teeth..."
e|-----|
B|-----|
G|-----|
D|-8~--|
A|-8~--|
D|-8~--|

e|---------------------------|
B|---------------------------|
G|---10-10-10-10---10\\\6-7--|
D|-0-x--x--x--x--0-x----x-x--|
A|-0-8--8--8--8--0-8----4-5--|
D|-0-------------0-----------|X2

"You've got blood running down your chin..."
e|--------|
B|--------|
G|--------|
D|-8~-8~--|
A|-8~-8~--|
D|-8~-8~--|

"But you suffered peacefully..."
e|---------------------------|
B|---------------------------|
G|---10-10-10-10---10\\\6-7--|
D|-0-x--x--x--x--0-x----x-x--|
A|-0-8--8--8--8--0-8----4-5--|
D|-0-------------0-----------|X2

Pre Chorus:

"She was a termite, eating away at my roots..."
e|------------------------|
B|------------------------|
G|------------------------|
D|-8-8--------5-5---------|
A|-8-8--------5-5-5p4p0---|
D|-8-8-8h10p8-5-5---------|

e|------------------|
B|------------------|
G|------------------|
D|-0-0-0-0-0-0-0-0--|
A|-0-0-0-0-0-0-0-0--|
D|-0-0-0-0-0-0-0-0--|X2
   * * * * * * * *

"I was just a lost soul who needed a home..."
e|------------------------|
B|------------------------|
G|------------------------|
D|-8-8--------5-5---------|
A|-8-8--------5-5-5p4p0---|
D|-8-8-8h10p8-5-5---------|

e|----------------------|
B|----------------------|
G|----------------------|
D|-0-0-0-0-0-0-0---0-0--|
A|-0-0-0-0-0-0-0---0-0--|
D|-0-0-0-0-0-0-0---0-0--|X2

Chorus:

"And I Can't can't wait, till you see see see..."
e|------------------------------------------------------------|
B|------------------------------------------------------------|
G|-77777777---------------------------------------------------|
D|-77777777-55555555-88888888---------------------------------|
A|-55555555-55555555-88888888-1313131312121212101010108888----|
D|----------55555555-88888888---------------------------------|
                              * * * * * * * * * * * * *****
                                       Tremolo Pick^^^^^^^^

"What death and disgust have done to me"
e|-----------------------------|
B|-----------------------------|
G|-77777777----------66666666--|
D|-77777777-55555555-77777777--|
A|-55555555-55555555-44444444--|
D|----------55555555-----------|Repeat Full Chorus X2

1st Chorus fill:

e|-------------------|
B|-------------------|
G|-7-7-9-10-9-7-6-7~-|
D|--8----------------|
A|-------------------|
D|-------------------|

2nd Chorus Fill
e|-------5-----------|
B|-----6---6---------|
G|-7-7-------7-6~----|
D|--8----------------|
A|-------------------|
D|-------------------|


End chorus:

"How all the choices you made..."
e|-------------------------------------|
B|-------------------------------------|
G|-7~---6~---5~---4~-------------------|
D|-7~---6~---5~---4~---8~---8-7-5-3-0--|
A|-5~---4~---3~---2~---8~---8-7-5-3-0--|
D|---------------------8~---8-7-5-3-0--|
                            W W N V M
                            I E E E E
                            S   - R T
                            H

*Last Chord (000xxx) of end chorus doubles as first chord of main riff/verse, as far as timing*

e|---------------------------|
B|---------------------------|
G|---10-10-10-10---10\\\6-7--|
D|-0-x--x--x--x--0-x----x-x--|
A|-0-8--8--8--8--0-8----4-5--|
D|-0-------------0-----------|X2

Main riff fill:
e|------------------------|
B|-6~\\\------------------|
G|-------7-5-7-5----------|
D|---------------7-5------|
A|-------------------4b~--|
D|------------------------|

e|---------------------------|
B|---------------------------|
G|---10-10-10-10---10\\\6-7--|
D|-8-x--x--x--x--8-x----x-x--|
A|-8-8--8--8--8--8-8----4-5--|
D|-8-------------8-----------|

e|---------------------------|
B|---------------------------|
G|---10-10-10-10---10\\\6-7--|
D|-0-x--x--x--x--0-x----x-x--|
A|-0-8--8--8--8--0-8----4-5--|
D|-0-------------0-----------|

Verse:

"As Angry As I Sound, Thats Just The Way I Cover Up..."
e|-----|
B|-----|
G|-----|
D|-8~--|
A|-8~--|
D|-8~--|

e|---------------------------|
B|---------------------------|
G|---10-10-10-10---10\\\6-7--|
D|-0-x--x--x--x--0-x----x-x--|
A|-0-8--8--8--8--0-8----4-5--|
D|-0-------------0-----------|X2

"Years and years, a slave to broken hearts, and sex appeal"
e|--------|
B|--------|
G|--------|
D|-8~-8~--|
A|-8~-8~--|
D|-8~-8~--|

e|---------------------------|
B|---------------------------|
G|---10-10-10-10---10\\\6-7--|
D|-0-x--x--x--x--0-x----x-x--|
A|-0-8--8--8--8--0-8----4-5--|
D|-0-------------0-----------|X2


Pre Chorus:

"She was a termite, eating away at my roots..."
e|------------------------|
B|------------------------|
G|------------------------|
D|-8-8--------5-5---------|
A|-8-8--------5-5-5p4p0---|
D|-8-8-8h10p8-5-5---------|

e|------------------|
B|------------------|
G|------------------|
D|-0-0-0-0-0-0-0-0--|
A|-0-0-0-0-0-0-0-0--|
D|-0-0-0-0-0-0-0-0--|X2
   * * * * * * * *

"I was just a lost soul who needed a home..."
e|------------------------|
B|------------------------|
G|------------------------|
D|-8-8--------5-5---------|
A|-8-8--------5-5-5p4p0---|
D|-8-8-8h10p8-5-5---------|

e|----------------------|
B|----------------------|
G|----------------------|
D|-0-0-0-0-0-0-0---0-0--|
A|-0-0-0-0-0-0-0---0-0--|
D|-0-0-0-0-0-0-0---0-0--|X2

Chorus:

"And I Can't can't wait, till you see see see..."
e|------------------------------------------------------------|
B|------------------------------------------------------------|
G|-77777777---------------------------------------------------|
D|-77777777-55555555-88888888---------------------------------|
A|-55555555-55555555-88888888-1313131312121212101010108888----|
D|----------55555555-88888888---------------------------------|
                              * * * * * * * * * * * * *****
                                       Tremolo Pick^^^^^^^^

"What death and disgust have done to me"
e|-----------------------------|
B|-----------------------------|
G|-77777777----------66666666--|
D|-77777777-55555555-77777777--|
A|-55555555-55555555-44444444--|
D|----------55555555-----------|

Repeat Full Chorus X2

1st Chorus fill:

e|-------------------|
B|-------------------|
G|-7-7-9-10-9-7-6-7~-|
D|--8----------------|
A|-------------------|
D|-------------------|

2nd Chorus Fill
e|-------5-----------|
B|-----6---6---------|
G|-7-7-------7-6~----|
D|--8----------------|
A|-------------------|
D|-------------------|


End chorus:

"How all the choices you made..."
e|-------------------------------------|
B|-------------------------------------|
G|-7~---6~---5~---4~-------------------|
D|-7~---6~---5~---4~---8~---8-7-5-3-0--|
A|-5~---4~---3~---2~---8~---8-7-5-3-0--|
D|---------------------8~---8-7-5-3-0--|
                            W W N V M
                            I E E E E
                            S   - R T
                            H

Transition into Bridge:

Probably a feedback effect, but to badly replicate it:

Kind of a tremolo, this part is basically useless.
e|---------------------------------|
B|-13-13-13-13-13-13-13-13-13-13---|
G|---------------------------------|
D|---------------------------------|
A|---------------------------------|
D|---------------------------------|

Fast Bridge:

*Still working on it...*

Bridge Fill
e|------------------------------------|
B|--------10-8------------------------|
G|-10-9-7------10-9-11b---------------|
D|------------------^^Pinch Harmonic--|
A|------------------------------------|
D|------------------------------------|

Slower Bridge:

"She was a termite, eating away at my roots..."

With Slap Delay:
e|--------------------------------------|
B|--------------------------------------|
G|--------------------------------------|
D|--------------------------------------|
A|-13-12-10-8----12-10-8-7----10-8-7-5--|
D|--------------------------------------|

Still with delay:
e|----------|
B|----------|
G|-0-0-0-0--|
D|-0-0-0-0--|
A|-0-0-0-0--|
D|-0-0-0-0--|

Chorus:

"And I Can't can't wait, till you see see see..."
e|------------------------------------------------------------|
B|------------------------------------------------------------|
G|-77777777---------------------------------------------------|
D|-77777777-55555555-88888888---------------------------------|
A|-55555555-55555555-88888888-1313131312121212101010108888----|
D|----------55555555-88888888---------------------------------|
                              * * * * * * * * * * * * *****
                                       Tremolo Pick^^^^^^^^

"What death and disgust have done to me"
e|-----------------------------|
B|-----------------------------|
G|-77777777----------66666666--|
D|-77777777-55555555-77777777--|
A|-55555555-55555555-44444444--|
D|----------55555555-----------|Repeat Full Chorus X2

1st Chorus fill:

e|-------------------|
B|-------------------|
G|-7-7-9-10-9-7-6-7~-|
D|--8----------------|
A|-------------------|
D|-------------------|

2nd Chorus Fill
e|-------5-----------|
B|-----6---6---------|
G|-7-7-------7-6~----|
D|--8----------------|
A|-------------------|
D|-------------------|


Outro:

"How all the choices you made..."
e|------------------------|
B|------------------------|
G|-7~---6~---5~---4~------|
D|-7~---6~---5~---4~---8--|
A|-5~---4~---3~---2~---8--|
D|---------------------8--|
"I Wish we never met."


| *  Palm Mute
| /  slide up
| \  slide down
| h  hammer-on
| p  pull-off
| ~  vibrato
===============================================================================
Tap to rate this tab
# A B C D E F G H I J K L M N O P Q R S T U V W X Y Z