Song name
# A B C D E F G H I J K L M N O P Q R S T U V W X Y Z

Bayside - Popular Science tab

e:----------------7-7------------------------------|
b:----------------8-8------------------------------|
g:------------------9------------------------------|
d:------9---7--------------------------------------|
a:-7-10--10---7---------9-10-9-7-------------------|
e:-------------------------------10--8-------------|

e:------------------------------------------------|
b:------------------------------------------------|
g:------------------------------------------------|
d:------10-------10-------10-9--------------------|
a:--10------10-------10---------------------------|
e:-----8-------8--------8-------------------------|

Twice

Any corrections email to special_cecil_says_hi@hotmail.com

Acoustic Version is half a step down
Tap to rate this tab
 
# A B C D E F G H I J K L M N O P Q R S T U V W X Y Z