Guitaretab - guitar tabs
Song name
# A B C D E F G H I J K L M N O P Q R S T U V W X Y Z

Bayside - The Walking Wounded tab

The Walking Wounded by Bayside

Song: The Walking Wounded
Artist: Bayside
Album: The Walking Wounded

Tabbed by: Alex Barrera
Email: alexishxc1337@aol.com or albballer8@aol.com

Tuning: Full Step Down/ D Standard (DGCFAD)

*Update 8-15-08* After seeing an extremely up close video of Jack playing the solo, I've
the tapping part is played a string lower than I have it, meaning I play it too far up
neck. I'll play around with it and if I can, I'll correct it.

*Update 7-26-08* I managed to figure out the chorus lead...about 6 months ago =/ I
updated it, I'm still not satisfied with the second verse lead though.

This should be pretty close, give or take a few notes in the solo and outro. Let me know
you have any comments or questions.

The way i laid out the tapping part may be confusing, use my video to help you with the 
if needed: http://www.youtube.com/watch?v=W6vHCivsIiw

Intro:

Guitar 1:
D|-------------------------------|
A|-------------------------------|
F|-------------------------------|
C|-5-----------5-------5---------|
G|-------3-4-5-----5-------5-5---|
D|---3-6---------3---3---3-------|

Guitar 2:
D|----------------------|
A|----------------------|
F|----------------------|
C|-5-5-x-5-5-x-55-x-5---|
G|-5-5-x-5-5-x-55-x-5---|
D|-3-3-x-3-3-x-33-x-3---|


Guitar 1:
D|--------------------------------------|
A|--------------------------------------|
F|--------------------------------------|
C|-----5-5-8-8-7*-------4-4-5-5-7(8*)---|
G|-6-6-------------5-5------------------|
D|--------------------------------------|

Guitar 2:
D|-------------------------------------|
A|-------------------------------------|
F|-------------------7-7-7-7-7-7-7-7---|
C|-8-8-8-8-8-8-8-8---7-7-7-7-7-7-7-7---|
G|-8-8-8-8-8-8-8-8---5-5-5-5-5-5-5-5---|
D|-6-6-6-6-6-6-6-6---------------------|

Repeat intro twice.

*Note: The í*í indicates a pinch harmonic. The (8*) indicates the harmonic is played on
note. However, if you wish to play the riff without harmonics, you would play the 7ís
both times.

Instrumental circus music ends on
D|------|
A|------|
F|------|
C|-5~---|
G|-5~---|
D|-3~---|


Verse 1:
Guitar 1:
D|--------------------------|
A|-8---11---8---11---8-11---|
F|-x---x----x---x----x-x----|
C|-5---8----5---8----5-8----|
G|--------------------------|
D|--------------------------|
Repeat until chorus.
*The spacing indicates the timing.

Guitar 2:
D|--------------------------------------------|
A|--------------------------------------------|
F|--------------------------------------------|
C|-5-5-x-5-5-x-55-x-5----8-8-x-8-8-x-88-x-8---|
G|-5-5-x-5-5-x-55-x-5----8-8-x-8-8-x-88-x-8---|
D|-3-3-x-3-3-x-33-x-3----6-6-x-6-6-x-66-x-6---|

D|----------------------------------------|
A|----------------------------------------|
F|-8/10-8-8-x-8-8-x-88-x-----7-7-x-77-x---|
C|-8/10-8-8-x-8-8-x-88-x-8---7-7-x-77-x---|
G|-6/8--6-6-x-6-6-x-66-x-8---5-5-x-55-x---|
D|-----------------------6----------------|

D|------|
A|------|
F|------|
C|-4~---|
G|-5~---|
D|-2~---|


Chorus:
Guitar 1:

D|---------------------------------------------------|
A|---------------------------------------------------|
F|-----------------3-5-5-7-7-5-5-3-3-5-5-7-7-7-10\---|
C|-555555555555555-x-x-x-x-x-x-x-x-x-x-x-x-x-x-x-\---|
G|-555555555555555-1-3-3-5-5-3-3-1-1-3-3-5-5-5-8-\---|
D|-333333333333333-----------------------------------|

D|---------------------------------------------------|
A|---------------------------------------------------|
F|-8888888888888888-8-7-5-3-77777777-8-x-7-x-5-x-3---|
C|-xxxxxxxxxxxxxxxx-x-x-x-x-xxxxxxxx-x-x-x-x-x-x-x---|
G|-6666666666666666-6-5-3-1-55555555-6-x-5-x-3-x-1---|
D|---------------------------------------------------|

D|--------------------------------------------------------------------|
A|--------------------------------------------------------------------|
F|-8888888888888888-77777777-12121212121212121212121212121212-14-14---|
C|-xxxxxxxxxxxxxxxx-xxxxxxxx-x-x-x-x-x-x-x-x-x-x-x-x-x-x-x-x--x--x----|
G|-6666666666666666-55555555-10101010101010101010101010101010-12-12---|
D|--------------------------------------------------------------------|

Guitar 2:
D|--------------------------------------|
A|--------------------------------------|
F|--------------------------------------|
C|-5555555555555555--8888888888888888---|
G|-5555555555555555--8888888888888888---|
D|-3333333333333333--6666666666666666---|

D|--------------------------------------|
A|--------------------------------------|
F|-8888888888888888---------------------|
C|-8888888888888888--8888888888888888---|
G|-6666666666666666--8888888888888888---|
D|-------------------6666666666666666---|

D|------------------------------------------------------|
A|------------------------------------------------------|
F|-8888888888888888--77777777------------55555555-7-7---|
C|-8888888888888888--77777777--55555555--55555555-7-7---|
G|-6666666666666666--55555555--55555555--33333333-5-5---|
D|-----------------------------33333333-----------------|

Repeat intro.


Verse 2:

Guitar 1:
D|-------------------------------------------------------------------------|
A|-------------------------------------77--------------66------------------|
F|--------77777777----------3-5-7-8-88-88------77-7-77-77-1212121212121212-|
C|-555555-77777777-55555555-3-5-7-8-88-88-8-88-88-7-77-77-1212121212121212-|
G|-555555-55555555-55555555-1-3-5-6-66-66-8-88-88-5-55-55-1010101010101010-|
D|-333333----------33333333---------------6-66-66--------------------------|
   ****** ******** ********         **      **      **     * * * * * * * *

Guitar 2:
D|-----------------------------------------------------------------------|
A|-----------------------------------------------------------------------|
F|--------77777777----------3-5-7-8-8888888----------77777777------------|
C|-555555-77777777-55555555-3-5-7-8-8888888-88888888-77777777-44444444---|
G|-555555-55555555-55555555-1-3-5-6-6666666-88888888-55555555-44444444---|
D|-333333----------33333333-----------------66666666----------22222222---|
   ****** ******** ********         ******* ******** ******** ********
Repeat the verse twice. (* here indicates palm muting)


Chorus:

Guitar 1:

D|---------------------------------------------------|
A|---------------------------------------------------|
F|-----------------3-5-5-7-7-5-5-3-3-5-5-7-7-7-10\---|
C|-555555555555555-x-x-x-x-x-x-x-x-x-x-x-x-x-x-x-\---|
G|-555555555555555-1-3-3-5-5-3-3-1-1-3-3-5-5-5-8-\---|
D|-333333333333333-----------------------------------|

D|---------------------------------------------------|
A|---------------------------------------------------|
F|-8888888888888888-8-7-5-3-77777777-8-x-7-x-5-x-3---|
C|-xxxxxxxxxxxxxxxx-x-x-x-x-xxxxxxxx-x-x-x-x-x-x-x---|
G|-6666666666666666-6-5-3-1-55555555-6-x-5-x-3-x-1---|
D|---------------------------------------------------|

D|--------------------------------------------------------------------|
A|--------------------------------------------------------------------|
F|-8888888888888888-77777777-12121212121212121212121212121212-14-14---|
C|-xxxxxxxxxxxxxxxx-xxxxxxxx-x-x-x-x-x-x-x-x-x-x-x-x-x-x-x-x--x--x----|
G|-6666666666666666-55555555-10101010101010101010101010101010-12-12---|
D|--------------------------------------------------------------------|


Guitar 2:
D|--------------------------------------|
A|--------------------------------------|
F|--------------------------------------|
C|-5555555555555555--8888888888888888---|
G|-5555555555555555--8888888888888888---|
D|-3333333333333333--6666666666666666---|

D|--------------------------------------|
A|--------------------------------------|
F|-8888888888888888--7777777777777777---|
C|-8888888888888888--7777777777777777---|
G|-6666666666666666--5555555555555555---|
D|--------------------------------------|

D|--------------------------------------------------|
A|--------------------------------------------------|
F|-8888888888888888--77777777------------55555555---|
C|-8888888888888888--77777777--55555555--55555555---|
G|-6666666666666666--55555555--55555555--33333333---|
D|-----------------------------33333333-------------|

Bridge:

Both Guitars:
D|-----------------------------------------------------|
A|-----------------------------------------------------|
F|-8--8------------------------------------------------|
C|-8--8--------8--8--------10--10--------5--5----------|
G|-666666-6666-8--8--------10--10--------5--5----------|
D|-------------666666-6666-8-888-88-8888-333333-3333---|
    ** ** ****  ** ** ****   **  ** ****  ** ** ****
D|--------------------------------------|
A|--------------------------------------|
F|-8--8--------7--7--------10~----12~---|
C|-8--8--------7--7--------10~----12~---|
G|-666666-6666-555555-5555-8~-----10~---|
D|--------------------------------------|
    ** ** ****  ** ** ****
[ Tab from: http://www.guitaretab.com/b/bayside/97579.html ]
Solo:
Note: Guitar 2 Plays chorus chords during the solo.

Guitar 1:
D|-------|
A|-------|
F|-------|
C|-12~---|
G|-------|
D|-------|


D|----------------------14-15-13---------------------|
A|----------15-13-16-15----------16-15-13------------|
F|-12-15-14-------------------------------15-14------|
C|----------------------------------------------15---|
G|---------------------------------------------------|
D|---------------------------------------------------|

D|---------------------------------------------------|
A|---------------------------------------------------|
F|-------14h15p14----------17-14----15-14----14------|
C|-12-15----------15-12-15-------15-------15----15---|
G|---------------------------------------------------|
D|---------------------------------------------------|

D|----------------------------------------------|
A|-----------------------------13----13-15-15---|
F|-12~-12-12-14-12-14-15-14-15----15------------|
C|----------------------------------------------|
G|----------------------------------------------|
D|----------------------------------------------|

This partís probably wrong; help/correction is appreciated:
D|-15p13----------15p13----------15p13----------15p13----14b15~---|
A|-------16-13b15-------16-13b15-------16-13b15-------15----------|
F|----------------------------------------------------------------|
C|----------------------------------------------------------------|
G|----------------------------------------------------------------|
D|----------------------------------------------------------------|


The fun part:

Trill this with your fretting hand until you can clearly hear the pattern change,
D|-6p3h6p3h6p3h6p3h6-|
A|-------------------|
F|-------------------|
G|-------------------|
C|-------------------|
D|-------------------|

While tapping these notes quickly with your picking hand:
D|-10-8-10-11-10-8-10-8-8-10-8--|
A|------------------------------|
F|------------------------------|
G|------------------------------|
C|------------------------------|
D|------------------------------|

It should roughly look like this:
D|-10p6p3-8p6p3-10p6p3-11p6p3-10p6p3-etc.---|
A|------------------------------------------|
F|------------------------------------------|
G|------------------------------------------|
C|------------------------------------------|
D|------------------------------------------|

Then trill this:
D|---------------------|
A|-6p3h6p3h6p3h6p3h6---|
F|---------------------|
G|---------------------|
C|---------------------|
D|---------------------|

While tapping these:
D|------------------------------------|
A|-11-10-11-13-11-10-11-10-10-11-10---|
F|------------------------------------|
G|------------------------------------|
C|------------------------------------|
D|------------------------------------|

Again, it should look like this:
D|-------------------------------------------|
A|-11p6p3-10p6p3-11p6p3-13p6p3-11p6p3-etc.---|
F|-------------------------------------------|
G|-------------------------------------------|
C|-------------------------------------------|
D|-------------------------------------------|

**Note**:  ^ indicates a tapped note
    ^                             ^     ^
D|---------------------------------------------------------------------|
A|---------------------------------------------------------------------|
F|-15-14p12p11h12p11h12p11h12p11-15p14-15-14p12p11h12p11h12p11h12p11---|
C|---------------------------------------------------------------------|
G|---------------------------------------------------------------------|
D|---------------------------------------------------------------------|

    ^                             ^
D|---------------------------------------------------------------|
A|-15-14p12p11h12p11h12p11h12p11-15-14p12p11h12p11h12p11h12p11---|
F|---------------------------------------------------------------|
C|---------------------------------------------------------------|
G|---------------------------------------------------------------|
D|---------------------------------------------------------------|

D|---------------------------------------------------------------|
A|---------------------------------------------------------------|
F|---------------------------------------------------------------|
C|-15-15-15-15-17-17-17-17-19-19-19-19-17-17-17-17-19-19-19-19---|
G|---------------------------------------------------------------|
D|---------------------------------------------------------------|

D|----------------------------17b18b17----------|
A|-16-16-16-16-------------18----------18b19~---|
F|-------------19-19-19-19----------------------|
C|----------------------------------------------|
G|----------------------------------------------|
D|----------------------------------------------|

Piano ends.

Last Chorus:

Guitar 1 is the same pattern as the last 2 choruses, only it's up one key like guitar 2.

Guitar 2:
D|---------------|
A|---------------|
F|---------------|
C|-44444444--7---|
G|-44444444--7---|
D|-22222222--5---|
   ********
D|-----------------------------------------------------|
A|-----------------------------------------------------|
F|-7777777777777777--1111111111111111111111111111111---|
C|-7777777777777777--1111111111111111111111111111111---|
G|-5555555555555555--9-9-9-9-9-9-9-9-9-9-9-9-9-9-9-9---|
D|-----------------------------------------------------|

D|----------------------------------------------------|
A|----------------------------------------------------|
F|-10101010101010101010101010101010-111111111111111---|
C|-10101010101010101010101010101010-111111111111111---|
G|-8-8-8-8-8-8-8-8-8-8-8-8-8-8-8-8--9-9-9-9-9-9-9-9---|
D|----------------------------------------------------|

D|----------------------------------------------|
A|----------------------------------------------|
F|-1010101010101010----------7777777777777777---|
C|-1010101010101010-77777777-7777777777777777---|
G|-8-8-8-8-8-8-8-8--77777777-5555555555555555---|
D|------------------55555555--------------------|


Outro:

Guitar 1:
D|-----------------------------|
A|-----------------------------|
F|-/11-7-9-11\---/11-7-9-11~---|
C|-----------------------------|
G|-----------------------------|
D|-----------------------------|

D|-------------------------------------------------------|
A|-10-12---12-14-15-14-12------------------------10~-----|
F|------------------------14-11-11-12-11h12p11-9---------|
C|-------------------------------------------------------|
G|-------------------------------------------------------|
D|-------------------------------------------------------|

D|------------------------------------------------------|
A|-10-12---12-14-15-14-12-------------------------------|
F|------------------------14-11-11-12-11h12p11-9-7------|
C|-------------------------------------------------9~---|
G|------------------------------------------------------|
D|------------------------------------------------------|

D|------------------------------|
A|------------------------------|
F|-9*b11b9-7-----9*b11b9-7------|
C|-----------9~------------9~---|
G|------------------------------|
D|------------------------------|

D|-----------------------------------|
A|-----------------------------------|
F|---------------9*b11b9-7---7-------|
C|-9*b11b9-7---------------9---9*~---|
G|-----------9~----------------------|
D|-----------------------------------|

Again, * indicates a pinch harmonic.


Guitar 2:
D|------------------------------------------------------|
A|------------------------------------------------------|
F|-8888888888888888--12121212121212121212121212121212---|
C|-8888888888888888--12121212121212121212121212121212---|
G|-6666666666666666--10101010101010101010101010101010---|
D|------------------------------------------------------|

D|-----------------------------------------------------|
A|-----------------------------------------------------|
F|-11111111111111111111111111111111-1212121212121212---|
C|-11111111111111111111111111111111-1212121212121212---|
G|-9-9-9-9-9-9-9-9-9-9-9-9-9-9-9-9--1010101010101010---|
D|-----------------------------------------------------|

D|-------------------------------------------------|
A|-------------------------------------------------|
F|-1111111111111111----------8888888888888888-6\---|
C|-1111111111111111-88888888-8888888888888888-6\---|
G|-9-9-9-9-9-9-9-9--88888888-6666666666666666-4\---|
D|------------------66666666-----------------------|


Order:

Intro
Verse 1
Chorus
Verse 2
Chorus
Bridge
Solo
Last Chorus
Outro

Like i said, it's not perfect, but any help would be appreciated.


| ^  tapped note
| ~  sustain note
| /  slide up
| \  slide down
| h  hammer-on
| p  pull-off
| V  vibrato
| +  harmonic
| x  Mute note
========================================================================
Related for The Walking Wounded tab