Song name
# A B C D E F G H I J K L M N O P Q R S T U V W X Y Z

Bazooka Joes - The Devils Way Home tab

Help us improve GuitareTab! Take a short survey!
THIS IS A TAB FOR BAZOOKA JOES. AUSTRALIAN ROCK BAND. THIS IS YOUR FIRST
TAB FOR BAZOOKA JOES ON THIS WEBSITE
----------------------------------------------------------------------------

Band.the bazooka joes
Song.the devils way home
tabbed by nathan star_deluxe@mail.com


Caught this aussie band live and they blew me away
I heard this song on mp3.com.au so this is how it goes


Hook or main riff. whatever you want to call it
E--------------------------|
B--------------------------|
G--2----------2---2--------|
D--2----------2---2--------|
A--0-3p03p0-6---5---3^^----|
E--------------------------|



Verse..
This part has the same as above however the other 
bits it goes like this
E------------------------------------|
B------------------------------------|
G--2-2-----2-2-----2-2-----2-2-----2-|
D--2-2-----2-2-----2-2-----2-2-----2-|
A--0-0-3-3-0-0-3-3-0-0-3-3-0-0-3-3-0-|
E------------------------------------|



Chorus.. Here are the chords. You can work out the stumming.
         The first D chord I cant work out but its something like
E-------------------------------|
B--6----------------------------|
G--5----------2-----------------|
D--4----------2---------2---2---|
A--5?-3-3-2-0-0-3-0---2---3-----|
E-------------------3-----------|and play again then

E---------------------|
B---------------------|
G--9--7---------------|
D--9--7---------------|
A--7--5--3~-3~-3-0----|
E---------------------| I dont think they are power chords but the real ones are
                      to hard for me to work out but thats the general idea here


Bridge Section..
E--------------------|
B--------------------|
G--2-2-------5-4-----|
D--2-2---------------|
A--0-0-0---0-3-2-----|
E--------3-----------| play that many times

The song has a guitar solo that is over A
I cant work out the solo as its pretty hard and fast



| /  slide up
| \  slide down
| h  hammer-on
| p  pull-off
| ~  vibrato
| +  harmonic
| x  Mute note
Related for The Devils Way Home tab