Song name
# A B C D E F G H I J K L M N O P Q R S T U V W X Y Z

Bb Brunes - Lalalove You tab

Effects : reverb

e---12-12-12--10-10-10--8-8-8--10------|
b--------------------------------------|
g--------------------------------------|
a--------------------------------------|
d--------------------------------------|
e--------------------------------------|

e---------------------------------------|
b--13-13-13---12-12-12------------------|
g------------------------12-12-12--14---|
a---------------------------------------|
d---------------------------------------|
e---------------------------------------|


e---12-12-12--10-10-10--8-8-8--10------|
b--------------------------------------|
g--------------------------------------|
a--------------------------------------|
d--------------------------------------|
e--------------------------------------|

e-------------------------------------------------|
b--13-13-13---12-12-12----------------------------|
g------------------------12-12-12--14-------------|
a-------------------------------------------------|
d-------------------------------------------------|
e--------------------------------------       X 4-|

e--------------------------------------|
b--13-13-13---12-12-12-----------------|
g------------------------12--14--------|
a--------------------------------------|
d--------------------------------------|
e--------------------------------------|
Tap to rate this tab
# A B C D E F G H I J K L M N O P Q R S T U V W X Y Z