Song name
# A B C D E F G H I J K L M N O P Q R S T U V W X Y Z

Bb Brunes - Illuminations chords

Highlighted       Show chord diagrams
Another BB Brunes chords, from the msot recent album Nico Teen Love


C		                   Em
Quand tout s\'endort mais quand moi je ne veux pas
Dm		                   G
Comme la fièvre s\'est emparée mes draps.
C		             Em
Plus une lumière ne subsiste au-delà.
Dm	                          G
La ville nous attend, très chère, déserte: elle attend ses rois.


F             Am    F             Am
Princes de la ville qui s\'illumine
F             Am    G
Ils se retrouveront se l\'on juré!
G
Au paradis ou en enfer.
F             Am    F             Am
Princes de la ville bien qu\'en exil,
F             Am    F             Am
Ils se retrouvent et ont déjà trié
G		    G
L\'paradis oui mais l\'enfer: à quoi bon?


C		       Em
Héros défiants la souveraine nuit
Dm
Poison d\'ivresse dans nos veines
G
L\'éternité en chemin.
C		              Em
Nous jetant dans le ventre de mère nuit
Dm		           G
Nous autres fils du soleil armés du vin de nos peines,
G
De nos euphories.

F             Am    F             Am
Princes de la ville qui s\'illumine
F             Am    G
Ils se retrouveront se l\'on juré!
G
Au paradis ou en enfer.
F             Am    F             Am
Princes de la ville bien qu\'en exil,
F             Am    F             Am
Ils se retrouvent et ont déjà trié
G		    G
L\'paradis oui mais l\'enfer: à quoi bon?

outro : F - E -Am


Riff:
 F                     Am
e|---------------------------------------------------------------|
b|---------------------------------------------------------------|
g|---------------------------------------------------------------|
d|-----------------------------2---------------------------------|
a|----------2-3-0--------000-0-----------------------------------|
E|-1--111-3----------------------0-1-----------------------------|

  F                     Am
e|---------------------------------------------------------------|
b|---------------------------------------------------------------|
g|---------------------------------------------------------------|
d|-----------------------------2~--------------------------------|
a|----------2-3-0--------000-0-----------------------------------|
E|-1--111-3------------------------------------------------------|
Tap to rate this tab
 
# A B C D E F G H I J K L M N O P Q R S T U V W X Y Z