Song name
# A B C D E F G H I J K L M N O P Q R S T U V W X Y Z

Bb Brunes - Aficionado tab

Aficionado - BB Brunes
Par alexguitare93

Intro:

E---------------------------------------------------------------------------------------|
B-----------------------------------------10--------------------------------------------|
G--------6-----------------------------------------2-1----------------------------------|
D-----------9--7-6--7--------6-7-9-6-------------------4-2--4---------------2-3-4-------|
A----7------------------4----------------------2------------------0---2-3-4-------------|
E---------------------------------------------------------------------------------------|


Couplet:
Accords: E C#min B A

E ------------------------|----------------------|-----------------------|------------------|
B ------------------------|----------------------|-----------------------|------------------|
G ------------------------|----------------------|-----------------------|------------------|
D ------------------------|-------6--------6-----|-4-4-6-4-4-4-6-4-------|-2-2-2-2-2-2-2-2--|
A ---7-7-9-7-7-7-9-7------|-4-4----4-4-4---4-----|-2-2-2-2-2-2-2-2-------|-0-0-0-0-0-0-0-0--|
E ------------------------|----------------------|-----------------------|------------------|


Pré-refrain
E ------------------------------------------------------------------------|
B ------------------------------------------------------------------------|
G ------------------------------------------------------------------------|
D -6-6-6-6-6-6-6-6-6--4-4-4-4-4-4-4--2-2-2-2-2-2-2-2--2-2-2-2-2-2-2-2-----|
A -4-4-4-4-4-4-4-4-4--2-2-2-2-2-2-2--0-0-0-0-0-0-0-0--0-0-0-0-0-0-0-0-----|
E ------------------------------------------------------------------------|



Refrain:
E ------------------------------------------------------------------------|
B ------------------------------------------------------------------------|
G ------------------------------------------------------------------------|
D -9-9-9-9-9-9-9-9-9--6-6-6-6-6-6-6--4-4-4-4-4-4-4-4--2-2-2-2-2-2-2-2-----|
A -7-7-7-7-7-7-7-7-7--4-4-4-4-4-4-4--2-2-2-2-2-2-2-2--0-0-0-0-0-0-0-0-----|
E ------------------------------------------------------------------------|
Tap to rate this tab
# A B C D E F G H I J K L M N O P Q R S T U V W X Y Z