Guitaretab - guitar tabs
Song name
# A B C D E F G H I J K L M N O P Q R S T U V W X Y Z

Bb Brunes - Houna tab

|***  BB Brunes *******************|
|***  Houna (Toutes Mes Copines)*****|
|***  Blonde Comme Moi (2007) ******|
|*********************************|

Sorry, I have just tab the solo of this song, I find it correct but if you have any 
or suggestions, contact me ==> blink_84320@hotmail.fr
Thanks, and Have fun ! ;-)

Tuning : Standard !

Play this for the solo !

First Part Of The solo (play this two times !)
[ Tab from: http://www.guitaretab.com/b/bb-brunes/99844.html ]
|-------------------------------------------------------------------------|
|-4-4-4-4-6-8-44-4-4-6-8-44-4-4-9-8-66-6-6-4-3-4-----------------------|
|-------------------------------------------------------------------------|
|-------------------------------------------------------------------------|
|-------------------------------------------------------------------------|
|-------------------------------------------------------------------------|

 Second Part of the solo !

|---------------------------------------------------------------|
|-11-----11-------------------------------11------11------------|
|-----12-------12-1210-810-8-12------------12-----12-12-------|
|---------------------------------------------------------------|
|---------------------------------------------------------------|
|---------------------------------------------------------------|


|---------------------|
|---------------------|
|-10-87-7h8p7-5-3----|
|---------------------|
|---------------------|
|---------------------|

h= hammer !
p= pull of !

Hope you enjoy it ! ;)
Related for Houna tab