Song name
# A B C D E F G H I J K L M N O P Q R S T U V W X Y Z

Bb King - Baby I Love You tab

Help us improve GuitareTab! Take a short survey!
America

Artist: BB King
Album: Deuces Wild
Track: Baby I love you

Play this solo with a very bluesy kind of feel. The following chords are played for backing:

G7 C7 G7

E --8-10-------------------------------8--10-----6-------|
B ---------10-11--10p8----8----8-10-11--------8----8p6---|
G ---------------------------9---------------------------|
D -------------------------------------------------------|
A -------------------------------------------------------|
D -------------------------------------------------------|

E --10-13----10p8---------------------------15/------6---|
B -----------------11-----8-----10-11-10p8--------8------|
G ----------------------x-----9--------------------------|
D -------------------------------------------------------|
A -------------------------------------------------------|
D -------------------------------------------------------|


Tabbed by Pete Earnshaw
Related for Baby I Love You tab