Guitaretab - guitar tabs
Song name
# A B C D E F G H I J K L M N O P Q R S T U V W X Y Z

Bb King - Stand By Me tab

------------|
BB KING     |      
STAND BY ME |
            |
Tabbed by:  |
gdrox91     |
            |  
E-mail:     |   
            |---------------|
nicolaj_leth292@hotmail.com |
----------------------------|

I'm the kinda guy that likes Green Day, Blink-182, Sum41, NFG etc.
so BB KING is not my favourite guy, although i have a lot of respect for him! This is
the main part of classical STAND BY ME:
[ Tab from: http://www.guitaretab.com/b/bb-king/132188.html ]
e-------------------------------------------------------|
B-------------------------------------------------------|
G-------------------------------------------------------|
D-------------------------------------------------------|
A--2-3-3---2-3-3-|-3-2-0-0----0-0--|-------------0------|
E-3-------3-----------------3--------3-2-1-1--|-0--3-3--|   x2


And the easy main solo:

e-----------------------------------------------------------------------|
B-----------------------------------------------------------------------|
G---9-10-10---9-10-10-|-10-9-7-7---7-7-|--------7-----------------------|
D-10--------10-------------------10-----10-9-8-8-10-10------------------|
A-----------------------------------------------------------------------|
E-----------------------------------------------------------------------|
__________________________________________________

That's it! Questions, comments, corrections or something else..?
.. Then mail me at: nicolaj_leth292@hotmail.com
Related for Stand By Me tab
Stand By Me chords by Bb King