Song name
# A B C D E F G H I J K L M N O P Q R S T U V W X Y Z

Bb King - Everyday I Have The Blues tab

B.B.King  Everyday I Have The Blues

This is from the Live At Cook County Jail Record, just
B.B.s lead parts


Intro Solo

E---------------------|-------10-13-----------|
B-----11-13b15----11v-|-13b15-------13b15-11--|v
Gs12-----------------|-----------------------|
D---------------------|-----------------------|
A---------------------|-----------------------|
E---------------------|-----------------------|

E---------------------|---------------------|
B-13h15---11v---------|-15r13p11------11v---|
G------------12------|---------12--12------|
D---------------------|---------------------|
A---------------------|---------------------|
E---------------------|---------------------|

E----13---------------|---------------------|
B--11---13b15---11s0--|---------------------|
G---------------------|---------------------|
D--------------------|---------------------|
A---------------------|---------------------|
E---------------------|---------------------|
Solo
E---------------------|-13b15-13p11---------|
B-----11v--11-13b15---|-------------14-11---|
Gs12-----------------|---------------------|
D---------------------|---------------------|
A---------------------|---------------------|
E---------------------|---------------------|

E---------------------|--------15---------------|
B-13b15r13p11--11-11--|--11-11----13b15---------|
G-----------12-------|12-----------------------|
D---------------------|-------------------------|
A---------------------|-------------------------|
E---------------------|-------------------------|

E---------------------|-------------------------|
B-11-13b16-13b15-13b15|11v------11-13-----------|
G---------------------|------12-----------------|
D--------------------|-------------------------|
A---------------------|-------------------------|
E---------------------|-------------------------|

E-13b15-13b15-13b15---|-13b15-13----------------|
B---------------------|----------13b15-11-11----|v
G---------------------|-------------------------|
D--------------------|-------------------------|
A---------------------|-------------------------|
E---------------------|-------------------------|

E----11-11b12r11-11---|------------------15-----|
B-14----------------14|1111v13b15r13p1113b15-|
G---------------------|--12---------------------|
D--------------------|-------------------------|
A---------------------|-------------------------|
E---------------------|-------------------------|

E--------13b15--13----|--------------13---------|
B-11v--------------14-|11v------11-1111v-------|
G-----12--------------|----12-13----------------|
D--------------------|-------------------------|
A---------------------|-------------------------|
E---------------------|-------------------------|

E---------------------|-------------------------|
B-13-13b15------------|-------------------------|
G---------------------|-------------------------|
D--------------------|-------------------------|
A---------------------|-------------------------|
E---------------------|-------------------------|
There you go, learn from the best
P.S.
If anyone knows the chord progression for this song I would appreciate the info, just 
e-mail me at gianni.avilan123@gmail.com
Tap to rate this tab
# A B C D E F G H I J K L M N O P Q R S T U V W X Y Z