Song name
# A B C D E F G H I J K L M N O P Q R S T U V W X Y Z

Bb King - Happy Blues tab

-------------------------------------------------------------------------------
			     Happy Blues Intro - BB King
-------------------------------------------------------------------------------
Tabbed by:Rich
Email:

Tuning:eadgbe

e|-----------------------------------------------------------------------------|
B|---------------------------4/5---------7-----5-------------------------------|
G|---------------------------5/6-------------------5bd------------4------------|
D|----------4-------7-------------7-------------------------7--------4----7----|
A|----/7-----------------------------------------------------------------------|
E|-----------------------------------------------------------------------------|

e|---------------------5-------------5------8/10/8p5---------------------------|
B|----------------5------------8--------------------------------12------10-----|
G|---------5v---------------------------------------------/11-------11---------|
D|---7-------------------------------------------------------------------------|
A|-----------------------------------------------------------------------------|
E|-----------------------------------------------------------------------------|

e|-----------------------------------------------------------------------------|
B|---12p10----------13h14h15-14-15-14-15-14-15bu17------------12--------10-----|
G|-----------11-----------------------------------------/11--------11----------|
D|-----------------------------------------------------------------------------|
A|-----------------------------------------------------------------------------|
E|-----------------------------------------------------------------------------|

e|-----------------------------------12--------------/17-----------------------|
B|-12----10----------------10--------------------------------------------------|
G|-------------11--------------------------------------------------------------|
D|-----------------------------------------------------------------------------|
A|-----------------------------------------------------------------------------|
E|-----------------------------------------------------------------------------|
Tap to rate this tab
# A B C D E F G H I J K L M N O P Q R S T U V W X Y Z