Song name
# A B C D E F G H I J K L M N O P Q R S T U V W X Y Z

Bb King - A Whole Lot Of Lovin tab

Band Name : BB King
Song Name : A Whole Lot of Lovin'
Tabbed By : Terry Sims (Masterofdarknes)
Email     : Floyd_Fan89@teenspot.com

s - slide
b - bend
p - pre-bend release
h - hammer-on
~ - hold
X - mute string

-8s9--9--9--9--9--9--9--9--9--9--9--9----8s9--------------------------|
-8s9--9--9--9--9--9--9--9--9--9--9--9----8s9--------------------------|
-9s10-10-10-10-10-10-10-10-10-10-10-10---9s10-------------------------|
---------------------------------------------11-----------------------|
----------------------------------------------------------------------|
----------------------------------------------------------------------|

-7s9--9--9--9--9--9--9--9--9--9--9--9---------------------------------|
-7s9--9--9--9--9--9--9--9--9--9--9--9-----8s9-------------------------|
-8s10-10-10-10-10-10-10-10-10-10-10-10----9s10------------9--9--11b13-|
-----------------------------------------------11------11-------------|
----------------------------------------------------------------------|
----------------------------------------------------------------------|

----------------------------------------------------------------------|
----------------------------------------------------------------------|
-11--9--9--11----------9--11b13-11b13-11p9---------9b10-9b10----------|
--------------------11---------------------11----------------11-------|
----------------------------------------------------------------11----|
----------------------------------------------------------------------|

--------------------------9--------------------------------------------|
---------------9-9-12b14----------9------12b14~~~~~~-9-----------------|
----9-10-11-12---------------9-11----------------------11p9----9h10----|
-11---------------------------------------------------------11------10-|
-----------------------------------------------------------------------|
-----------------------------------------------------------------------|


                                                        I  got a   whole_ lot o' lov-in'
-9--------------------------------------------------------------------|
------11--11-9-----9--------------------------------------------------|
----------11-10----10---------11-X-X-X-9------------------------------|
------------------------------10-X-X-X-10-----------------------------|
------------------------11----11-X-X-X-11-----------------------------|
----------------------------------------------------------------------|


baby; just a waiting for   you.                                             (I got a...
---------------------------------9------------------9--9---9----------|
---------------------------------9---9--11----------11-11--11---------|
---------------------------------10--10-11--9h10-10----10--10---------|
----------------------------------------------------------------------|
----------------------------------------------------------------------|
----------------------------------------------------------------------|
Tap to rate this tab
# A B C D E F G H I J K L M N O P Q R S T U V W X Y Z