Song name
# A B C D E F G H I J K L M N O P Q R S T U V W X Y Z

Bb King - Late Blues tab

h- Hammer on
p- Pull off
0-  Repeat.... look for em
0- /


E----0----------------------| ----0----------------------------|
B---------------------------| ---------------------------------|
G---------------------------| ---------------------------------|
D--------2-------------5h7p5| --------2------------------------|
A----------7p5------5h7-----| ----------7p5---------3h5-7-5-3--|
E---0-3h5-----7p5--3--------| ---0-3h5-----7p5--3-3h5--------3-|


E---------------------------|
B---------------------------|
G---------------------------|
D---2-----------------------|
A-----7p5--------5-7-5------|
E--------7p5--3-7-----7-----| <-x2

ok well thats all i kno and i didnt see that anybody had this tab so yeah thats how i roll
Tap to rate this tab
 
# A B C D E F G H I J K L M N O P Q R S T U V W X Y Z