Song name
# A B C D E F G H I J K L M N O P Q R S T U V W X Y Z

Bb King - There Is Something On Your Mind tab

Help us improve GuitareTab! Take a short survey!
Standard Tuning, 33 beat
Intro:
------------------------------------------------------------------

e---------------|
b---------------|
d-----------10-7|
g-3-3-5-7-8-----|
a---------------|
E---------------|

e---------------------------------|
b---------------------------------|
d-----------10-12-15-10-12-10-12-3|
g-3-3-5-7-8-----------------------|
a---------------------------------|
E---------------------------------|

e-10-8-6-3-6-10-8|
b----------------|
d----------------|
g----------------|
a----------------|
E----------------|

e-------13-15-13-10|
b-6-6-8------------|
d------------------|
g------------------|
a------------------|
E------------------|

e-1-3-13-13-13-11-11-11-10-10-10
b-------------------------------
d-------------------------------
g-------------------------------
a-------------------------------
E-------------------------------

e-8-8-8-6-6-6-3-6-10-6|
b---------------------|
d---------------------|
g---------------------|
a---------------------|
E---------------------|

Verses:
There is something on your mind
A:

e-10-10-6|
b--------|
d--------|
g--------|
a--------|
E--------|

By the way you look at me
B:

e-10-10-6-6|
b----------|
d----------|
g----------|
a----------|
E----------|

There is something on your mind baby
C:

e-----------|
b-6-13-15-11|
d-----------|
g-----------|
a-----------|
E-----------|

by the way you look at me
D:

e-----------13-10-6|
b-6-8-11-13--------|
d------------------|
g------------------|
a------------------|
E------------------|



and what your thinking brings happiness
E:
  s
e-8-13-13-12-10-6|
b----------------|
d----------------|
g----------------|
a----------------|
E----------------|

oh! and it brings misery
F:

e-10-8-6-6-3-6-10-6|
b------------------|
d------------------|
g------------------|
a------------------|
E------------------|

after that you can just repeat A-F, add a little ad-lib and thats pretty 
much the entire song
Related for There Is Something On Your Mind tab