Song name
# A B C D E F G H I J K L M N O P Q R S T U V W X Y Z

Bb King - Easy Blues Riff tab

here are two easy but fun blues riffs that many blues artist use..hope u enjoy

**p=pull off**

E|----------------------------------------------------|
B|----------------------------------------------------|
G|----------------------------------------------------|
D|-----------5-7-5------------------------------------|
A|------5-6-7------7-6-5------------------------------|
E|--5-8-------------------8-7~~~~~~~------------------|

and heres the 2nd...

E|-------------------------------------|
B|-------------------------------------|
G|-------------------------------------|
D|---------------0-3-0-----------------|
A|--------0-1-2---------2-1-0----------|
E|----0-3---------------------3p0------|

hope u liked them
Tap to rate this tab
# A B C D E F G H I J K L M N O P Q R S T U V W X Y Z