Song name
# A B C D E F G H I J K L M N O P Q R S T U V W X Y Z

Bbm - Waiting In The Wings tab

Waiting in the Wings
BBM (Moore/Bruce)


Tab is for the complete song including the final solo.


Intro

  D5               D5/F               G5
  let ring                                                 |----riff 1----|
|-----------------------------------|-------------------------------------|
|----------3------(3)------3(3)-----|-(3)--------------3------------------|
|------2-------------------2p0------|-(0)------0---------------------3b4--|
|--0-------------------0------------|------0-------0-------------5---3b4--|
|-----------------------------------|----------------------------3--------|
|--------------0---1-------------2--|--3--------------(3)--3h5------------|


  D5               D5/F               G5
|-----------------------------------|-------------------------------------|
|----------3------(3)------3(3)-----|-(3)--------------3------------------|
|------2-------------------2p0------|-(0)----------0-----------------3b4--|
|--0-------------------0------------|----------0-----------------5---3b4--|
|-----------------------------------|------2---------------------3--------|
|--------------0---1-------------2--|--3--------------(3)--3h5------------|

Intro solo [with wah-wah]

|-----------------------------------|----------------------------10--------|
|-----------------------------------|-------------------------------13-10--|
|-----------------------------------|----------------------12b13-----------|
|-----------------------------------|--------------------------------------|
|-----------------------------------|--------------------------------------|
|-----------------------------------|--------------------------------------|


  D5              D5/F                      G5
|-----------------10----------------------|-------------------------------------|
|--13b15r13b15-------13-------------------|-------------------------------------|
|-----------------------12b13---12-10-----|--10-12-12b14-10h12-12----10---------|
|-------------------------------------12--|-----------------------------12\2----|
|-----------------------------------------|-------------------------------------|
|-----------------------------------------|-------------------------------------|


  D5              D5/F                 G5
|------------------------------------|---------------------------------------|
|-----------------10-13-10h13p10-----|---------------------------------------|
|--x-12b14-----------------------12--|--10b11--------------------------------|
|--x---------------------------------|--------12-----------------------------|
|------------------------------------|-----------12/10-8-10\7----------------|
|------------------------------------|---------------------------------------|


Verse 1

            Dm              F
She was standing in the dark
Gm                   riff 1
Waiting in the wings
Dm    F               Gm
Just around the next dream
             Dm           F
She was holding all the keys
   Gm
To set my heart free
  Bb       C          Dm
Behind the shadows of love

Verse 2

            Dm              F
From the distance I could see
    Gm
Her standing alone
Dm           F            Gm
Shine like a jewel in the night
Dm                F
Hidden from the eyes
  Gm
A thief of the soul
  Bb       C          Dm7
Behind the shadows of love

Chorus [with wah-wah]

Am                      C
Set me on fire with the stories you tell
Em                   Bb
Drown in an ocean of dreams
Am                    C
Close to the flame on wings of desire
Em                Bb
Nothing’s what it seems

Verse 3

            Dm     F
She was waiting outside
     Gm
With arms open wide
Dm       F                Gm
Ready to break my heart’s fall
       Dm                   F
Oh the lightening in her eyes
   Gm
I learned how to fly
  Bb       C          Dm
Behind the shadows of love


Solo [with wah-wah]


   Dm              Dm                 F
|--------10-----|-----------10----10-----------------------|
|--------10-10--|--13b15-------13-10-----------------------|
|--12b14--------|--------------------12b13-12—10h12p10-----|
|---------------|--------------------------------------12--|
|---------------|------------------------------------------|
|---------------|------------------------------------------|


   Gm                                  Dm         F
|-----------------------------------|--------------------------------|
|-----------------------------------|--------------------------------|
|--10-12-12b14-10h12-12----10-------|--0-(7)-8b12r8-6b8-6b7----------|
|-----------------------------12\0--|--0-(7)----------------7-5b6----|
|-----------------------------------|-----------------------------7--|
|-----------------------------------|--------------------------------|


   Gm                          Dm            F
|---------------------------|----------------10-12—10h12p10--------|
|---------------------------|----13-13b15-------------------13b14--|
|------------5-7----5-7/13--|--------------------------------------|
|--6-5-3—7h7----------------|--------------------------------------|
|---------------------------|--0-----------------------------------|
|---------------------------|--------------------------------------|


   Gm                                  Bb                   C
|--10--------------------------------|-----------------------------------------------|
|-----13-----------------------------|-----------------------------------------------|
|--------12b13-12-10h12p10-9---------|------------10-12h14--12-10h12p10p9------------|
|-----------------------------12-10--|--12-10h12---------------------------12-10-----|
|------------------------------------|-------------------------------------------12--|
|------------------------------------|-----------------------------------------------|


   Dm                             Dm                      F    
|-----------------------13-15--|------13b16-----13b15-----13b15-----13b15----|
|--------------------15--------|------13b16-----13b15-----13b15-----13b15----|
|---------------0--------------|--(10)------(10)------(10)------(10)---------|
|--10-12—(12)\7-0--------------|--(10)------(10)------(10)------(10)---------|
|------------------------------|---------------------------------------------|
|------------------------------|---------------------------------------------|


   Gm                                   Dm            F    
|--13b15---13b15---(15)-13p10-13-13--|--10------------10----10-12-10-------10-----|
|--13b15---13b15---(15)--------------|--------13b15------13-10-------13b14----10--|
|------------------------------------|--------------------------------------------|
|------------------------------------|--------------------------------------------|
|------------------------------------|--------------------------------------------|
|------------------------------------|--------------------------------------------|


   Gm                                                     Dm          F    
|-----------------------------10----10-------10--------|-------------------------------------|
|--13p10-------10-13-------10-10-13-10-------10--------|-------------------------------------|
|--------12b14-------12b14-------------12b14----12b14--|--10-------12-10h12p10-----10-12h14--|
|------------------------------------------------------|--------12-------------12------------|
|------------------------------------------------------|-------------------------------------|
|------------------------------------------------------|-------------------------------------|


   Gm                                        Bb            C    
|--10----------10---12b13r12-10h12p10-----|--------13-15-17-15h17p15-13---15-----|
|--10-10-13b14------------------------13--|--13/15---------------------------15--|
|-----------------0-----------------------|--------------------------------------|
|-----------------------------------------|--------------------------------------|
|-----------------------------------------|--------------------------------------|
|-----------------------------------------|--------------------------------------|


   Dm
|------20b22-(22)-20b22-20b22-------|
|-----------------------------------|
|-----------------------------------|
|-----------------------------------|
|-----------------------------------|
|-----------------------------------|


Chorus

Am                      C
Set me on fire with the stories you tell
Em                   Bb
Drown in an ocean of dreams
Am                    C
Close to the flame on wings of desire
Em                Bb
Nothing’s what it seems


Intro (D5/ D5/F/ G5) x2


Outro solo [with wah-wah]


   G5                                        Dm            F    
|-------------------------------10--------|----------------10--------------------|
|----------------------------10----13p10--|--13b15---------10-----13b15----------|
|----------------------12b14--------------|-------------------(10)---------------|
|-----------------------------------------|-------------------(10)---------------|
|-----------------------------------------|--------------------------------------|
|-----------------------------------------|--------------------------------------|


   Gm                                                          Dm             F    
|-------10----10-------10----10-------10--------------------|--------------------------------|
|--(15)-10-13-10-------10-13-10-------10--------------------|-----------------0--------------|
|----------------12b14----------12b14----12b14-12-10-12b14--|--10------12p0-0-0-7/10-(10)----|
|-----------------------------------------------------------|---------------0-0--------------|
|-----------------------------------------------------------|---------------0----------------|
|-----------------------------------------------------------|---------------0----------------|


   Gm                                        Dm                   F    
|-----------------------------------------|--------------------------------------|
|-----------------------------------------|--------------------------------------|
|--(10)/13----7-5----------------------5--|--7b10-7-!7)-----------5h7p5----------|
|----------(0)--0--7-6-5--3---3--5-5/7----|-----------------------------7-7\5-3--|
|----------(0)--------------5-------------|--------------------------------------|
|-----------------------------------------|--------------------------------------|


   Gm                               Dm                  F    
|--------------------------------|------------------------------10------|
|--------------------------------|---------------------------10-10-13b--|
|------5-----------------5-7/10--|--10h12-----------10-12b14------------|
|--5h7----7\5p3------5-7---------|-----0--------------------------------|
|---------------5-(0)------------|-----0--------------------------------|
|-----------------(0)------------|--------------------------------------|


   Gm                                                      Dm                  F    
|------10----12b13-10----------10----13-10-------10-----|----------------10------------------|
|--b15-10-10----------10-13b15----10-------10-13----10--|--13b15---------10-10-13b15-(15)-0--|
|-------------------------------------------------------|---------------------------------0--|
|-------------------------------------------------------|---------------------------------0--|
|-------------------------------------------------------|------------------------------------|
|-------------------------------------------------------|------------------------------------|


   Gm                                          Dm               F    
|--------------------10---------------------|--------------------------------------|
|--(0)-13b15------------13------------------|--------------------------------------|
|--(0)---------------------12b13--12-10-----|--10-----12-12b14--10-----------------|
|--(0)----------------------------------12--|------------------------------12p0----|
|-------------------------------------------|-----------------------------------0--|
|-------------------------------------------|--------------------------------------|
 

  Gm                                         Dm              F    
|------------------------------------------|-----------------------------------|
|------------------------------------------|-----------------------------------|
|-----14b17-(17)r14--12h14p12-------12-14--|--10-9—-7h9p7-----7----------------|
|--(0)------------------------15b16--------|--------------10—---10--7h10p7-----|
|--(0)-------------------------------------|-------------------------------10--|
|--(0)-------------------------------------|-----------------------------------|


   Gm                                              Bb                C
|-----------------------------------------------|----------13-15b17--15—13h15p13----------|
|-------------------------------------------10--|--13b15-------------------------15-------|
|-----------------10--12-10b11-----10-12b13-----|-----------------------------------15\7--|
|-----------10-12--------------12---------------|-----------------------------------------|
|--8-10-12--------------------------------------|-----------------------------------------|
|-----------------------------------------------|-----------------------------------------|


   Dm               F                  Gm
|-------------------10--------------|-----------------------------------------|
|-----13b15-(15)-------13-----------|-----------------------------------------|
|--(0)--------------------12b13-12--|--10h12p10----12b14-12-(12)-----10-------|
|--(0)------------------------------|-----------12----------------------12\2--|
|--(0)------------------------------|-----------------------------------------|
|-----------------------------------|-----------------------------------------|


   Dm             F    
|----13b15---r13—-10h13p10-------10-----------|
|--------------------------13b14----10-13b14--|
|---------------------------------------------|
|--0------------------------------------------|
|--0------------------------------------------|
|---------------------------------------------|


   Gm  
|--10-12-10h12p10-----10------------------------------------------10--|
|------------------13----10-13p10-----10-----------------------10-----|
|----------------------------------12----13-12p10--12----10-12--------|
|-----------------------------------------------------12--------------|
|---------------------------------------------------------------------|
|---------------------------------------------------------------------|


   Dm            F                           Gm
|----------------13-----------------------|--13-15-15b17------15b17-15b17-15b17-15b17--|
|--14b15-(15)-15----15\3-5/14-------5/15--|-------------------15b17-15b17-15b17—15b17--|
|-----------------------------------------|--------------------------------------------|
|-----------------------------------------|--------------------------------------------|
|-----------------------------------------|--------------------------------------------|
|-----------------------------------------|--------------------------------------------|


   Bb                C                       Dm
|--15b17---13--10-10-13b15-r13--10--------|--10--------------0-------13-15--|
|--15b17---------------------------13b15--|-----13b15--------0-13h15--------|
|-----------------------------------------|---------------------------------|
|-----------------------------------------|---------------------------------|
|-----------------------------------------|---------------------------------|
|-----------------------------------------|---------------------------------|


   Dm                 F                      Gm
|--14b16----13b15-----13-10-----10/3------|-------13b15---r13—-10h13p10--------10--------|
|-----------------------------------------|----(0)----------------------13b14-----13b15--|
|-----------------------------------------|----(0)---------------------------------------|
|-----------------------------------------|--0-------------------------------------------|
|-----------------------------------------|--0-------------------------------------------|
|-----------------------------------------|--0-------------------------------------------|


   Dm                 F
|-----------10----------------------------------|
|--13b15-------13-10--------10-13--10-------10--|
|---------------------12b14-----------12b14-----|
|-----------------------------------------------|
|-----------------------------------------------|
|-----------------------------------------------|


  Gm                   hold bend
|-------------------------------------------------|
|--------------------------13---------------------|
|--13-12-10----10-12-12b14----(14)-(14)r12-10-----|
|-----------12--------------------------------12--|
|-------------------------------------------------|
|-------------------------------------------------|


   Dm                     F                        Gm
|----------------------10-----------------------|-----------------------------------------|
|--------13b15-(15)----10-13p10-----------------|-----------------------------------------|
|--------------------------------12h13p12p10----|--10b11----------------------------------|
|--(12)--------------------------------------12-|---------12------------------------------|
|-----------------------------------------------|-------------11p10p8—10h11—10-8--0-------|
|-----------------------------------------------|---------------------------------0-------|


  Bb                      C
|-----------------------------------------|
|--------------------------------6--6-----|
|-------------------5---5—-7p5h7----------|
|-------------7p5h7---7-------------------|
|--5p3h5p3h5------------------------------|
|-----------------------------------------|



Transcribed by Dave Hughes (dm_hughes1@hotmail.com)

18 January 2008
Tap to rate this tab
# A B C D E F G H I J K L M N O P Q R S T U V W X Y Z