Song name
# A B C D E F G H I J K L M N O P Q R S T U V W X Y Z

Bbmak - Back Here chords

Highlighted       Show chord diagrams
Back Here (acoustic)
BBMak
Key: G

tabbed and chorded by weksa
contact: weksa@live.com

Chords:

   Em7 Cadd9  D  Dsus4  G   G/F# Am7   Em
e|--3----3----2----3----3----3----0----0-----|
B|--3----3----3----3----3----3----1----0-----|
G|--0----0----2----2----0----0----0----0-----|
D|--2----2----0----0----0----0----2----2-----|
A|--2----3--------------2----x----0----2-----|
E|--0-------------------3----2---------0-----|


Verse 1:
Em7              Cadd9
 Baby set me free from this misery
D                  G     G/F#
 I can't take it no more
Em7                Cadd9
 Since you ran away nothing's been the same
   D                         G
Don't know what I'm living for


Prechorus:
       Cadd9 G     D Em7
Here I am      so alone
             Cadd9                      Dsus4 D
And there's nothing in this world I can do


Chorus:
             Cadd9     G     D    Em7
Until you're back here baby
Cadd9     G         D        Em7
Miss you, want you, need you so
             Cadd9     G     D    Em7
Until you're back here baby yeah
          Cadd9     G      D           Em7
There's a feeling inside I want you to know
Cadd9       G         D             G  G/F#
You are the one and I can't let you go


Verse 2:
Em7                 Cadd9
 So I told you lies, even made you cry
D                 G     G/F#
 Baby I was so wrong
Em7                 Cadd9
 Girl, I promise you now my love is true
D                            G
This is where my heart belongs


Prechorus:
              Cadd9 G     D Em7
'Cause here I am      so alone
             Cadd9                      Dsus4 D
And there's nothing in this world I can do


Chorus:
             Cadd9     G     D    Em7
Until you're back here baby
Cadd9     G         D        Em7
Miss you, want you, need you so
             Cadd9     G     D    Em7
Until you're back here baby yeah
          Cadd9     G      D           Em7
There's a feeling inside I want you to know
Cadd9       G         D             G
You are the one and I can't let you go


Bridge:
      Am7
And I wonder
         Em                        D
Are you thinking of me 'cause I'm thinking of you
      Am7
And I wonder
        Em                     D
Are you ever coming back in my life


Prechorus (picking):

              Cadd9 G        Dsus4 Em7
e|----------------3-----3--------3-----3----------------------|
B|--------------3-----3---3----3-----3---3--------------------|
G|------------------------------------------------------------|
D|---------------------------0--------------------------------|
A|------------3-----------------------------------------------|
E|------------------3--------------0--------------------------|
'Cause here I am         so alo----ne


             Cadd9                        D (downstrum beats +2+3+4+)
e|---------------3--------------------------------------------|
B|-------------3---3------------------------------------------|
G|------------------------------------------------------------|
D|------------------------------------------------------------|
A|-----------3------------------------------------------------|
E|------------------------------------------------------------|
And there's nothing in this world I can do


Chorus:
             Cadd9     G     D    Em7
Until you're back here baby
Cadd9     G         D        Em7
Miss you, want you, need you so
             Cadd9     G     D    Em7
Until you're back here baby yeah
          Cadd9     G      D           Em7
There's a feeling inside I want you to know
Cadd9       G         D
You are the one and I can't


             Cadd9     G     D    Em7
Until you're back here baby
             Cadd9     G     D    Em7
Until you're back here baby
             Cadd9     G     D    Em7
Until you're back here baby


(one downstrum for each chord)
          Cadd9     G      D           Em7
There's a feeling inside I want you to know
Cadd9       (G)       D
You are the one and I can't


Outro:
Two guitars are playing: one rhythm, one solo.
The rhythm chords are shown above each tab staff.

Me playing it: http://www.youtube.com/watch?v=AmogqeLcbQY

          Cadd9      G      D     Em7
e|----3-5-5-7-7-7-7b(8)-5---5h7-5---5-----------------------------|
B|--3---------------------8-------8---8-5-8-----------------------|
G|----------------------------------------------------------------|
D|----------------------------------------------------------------|
A|----------------------------------------------------------------|
E|----------------------------------------------------------------|

    Cadd9      G      D     Em7
e|--5-7-7-7-7b(8)-5---5h7-5---------------------------------------|
B|------------------8-------8~------------------------------------|
G|----------------------------------------------------------------|
D|----------------------------------------------------------------|
A|----------------------------------------------------------------|
E|----------------------------------------------------------------|

          Cadd9      G      D     Em7
e|----3-5-5-7-7-7-7b(8)-5---5h7-5---5-----------------------------|
B|--3---------------------8-------8---8-5-8-----------------------|
G|----------------------------------------------------------------|
D|----------------------------------------------------------------|
A|----------------------------------------------------------------|
E|----------------------------------------------------------------|

    Cadd9      G      D     Em7
e|--5h7-7-7-7b(8)-5---5h7-5---------------------------------------|
B|------------------8-------8~------------------------------------|
G|----------------------------------------------------------------|
D|----------------------------------------------------------------|
A|----------------------------------------------------------------|
E|----------------------------------------------------------------|

    Cadd9  G       D   Em7 (all notes except the 4 are on the upbeat)
e|----------------------------------------------------------------|
B|---------3~-----------------------------------------------------|
G|-----2/4--------------------------------------------------------|
D|----------------------------------------------------------------|
A|----------------------------------------------------------------|
E|----------------------------------------------------------------|

    Cadd9  G       D   Em7 (all notes except the 4 and 5's are on the upbeat)
e|-----------------3h5-3~-----------------------------------------|
B|---------3-3h5-3------------------------------------------------|
G|-----2/4--------------------------------------------------------|
D|----------------------------------------------------------------|
A|----------------------------------------------------------------|
E|----------------------------------------------------------------|

b  bend note
h  hammer-on
~  vibrato
/  slide up

Explanation of the bend notation:
In this case, bend the 7 up one semi-tone, or half-step, to sound like 8.
Tap to rate this tab
 
# A B C D E F G H I J K L M N O P Q R S T U V W X Y Z