Song name
# A B C D E F G H I J K L M N O P Q R S T U V W X Y Z

Bbmak - Out Of Your Head tab

E:-------------------------------------------10--14--15--13--17--18--17--15-|
B:-15--15--15--13--11--15--15--18--15-11------------------------------------|
G:--------------------------------------------------------------------------|
D:--------------------------------------------------------------------------|
A:--------------------------------------------------------------------------|
E:--------------------------------------------------------------------------|

E:-13--11--10--13--11--10---------------------------------------------------|
B:-------------------------13--11-------------------------------------------|
G:--------------------------------------------------------------------------|
D:--------------------------------------------------------------------------|
A:--------------------------------------------------------------------------|
E:--------------------------------------------------------------------------|
Tap to rate this tab
 
# A B C D E F G H I J K L M N O P Q R S T U V W X Y Z