Song name
# A B C D E F G H I J K L M N O P Q R S T U V W X Y Z

Bbq Chickens - More Beer tab

more beer


bbq chickens


TRANSCRIBED BY RUDY GUZMAN


guzman_84@hotmail.com




                                               
e:---------------|
B:---------------|
G:-7-------------|
D:----6-5-6-7--6-|
A:---------------|
E:---------------|


  more beer!!!
e:---------------|
B:---------------|
G:---------------|
D:-----7---------|
A:-7---5---------|
E:-5-------------|




hillo son mex

12/12/13
Tap to rate this tab
 
# A B C D E F G H I J K L M N O P Q R S T U V W X Y Z