Song name
# A B C D E F G H I J K L M N O P Q R S T U V W X Y Z

Bbq Chickens - Itsy Bitsy Teenie Weenie Yellow Polka Dot Bikini tab

itsy bitsy teenie weenie yellow polka dot bikini


bbq chickens


TRANSCRIBED BY RUDY GUZMAN


guzman_84@hotmail.com




                                               
e:--------------------------|
B:--------------------------|
G:-----------7--7-9-7-6-----|
D:----4--7--------------9-7-|
A:-5------------------------|
E:--------------------------|

  verse
e:-----------------------------5--5-5-5--5--------------3-3--3-3-3--3-|
B:-7-7--7-7-7--7---------------5--5-5-5--5--7-7--7-7-7--2-2--2-2-2--2-|
G:-7-7--7-7-7--7--6--6-6-6--6--6--6-6-6--6--7-7--7-7-7--3-3--3-3-3--3-|
D:-7-7--7-7-7--7--7--7-7-7--7--5--5-5-5--5--7-7--7-7-7--0-0--0-0-0--0-|
A:-5-5--5-5-5--5--7--7-7-7--7--7--7-7-7--7--5-5--5-5-5----------------|
E:----------------5--5-5-5--5--5--5-5-5--5----------------------------|


e:-3-3--3-3-3--3---------------------|
B:-3-3--3-3-3--3--7-7-7---------7-7--|
G:-4-4--4-4-4--4--7-7-7--6-6-6--7-7--|
D:-5-5--5-5-5--5--7-7-7--7-7-7--7-7--|
A:-5-5--5-5-5--5--5-5-5--7-7-7--5-5--|
E:-3-3--3-3-3--3---------5-5-5-------|


  1, 2, 3, 4 tell the people what you want

   It was an itsy, bitsy, teenie, weenie, yellow polka-dot bikini
e:---------------------------------------------------------------|
B:---------------------------------------7-7-7-7-7-7-7-7-7-7-7-7-|
G:-----------6-6-6-6-6-6-6-6-6-6--6-6-6--7-7-7-7-7-7-7-7-7-7-7-7-|
D:-----------7-7-7-7-7-7-7-7-7-7--7-7-7--7-7-7-7-7-7-7-7-7-7-7-7-|
A:-----------7-7-7-7-7-7-7-7-7-7--7-7-7--5-5-5-5-5-5-5-5-5-5-5-5-|
E:-----------5-5-5-5-5-5-5-5-5-5--5-5-5--------------------------|

  that she wore for the first time today
e:--------------------------------------|
B:----------------------7-7-7-7-7-7-7-7-|
G:-6-6-6-6-6-6-6-6-6-6--7-7-7-7-7-7-7-7-|
D:-7-7-7-7-7-7-7-7-7-7--7-7-7-7-7-7-7-7-|
A:-7-7-7-7-7-7-7-7-7-7--5-5-5-5-5-5-5-5-|
E:-5-5-5-5-5-5-5-5-5-5------------------|

  an itsy, bitsy, teenie, weenie, yellow polka dot bikini
e:-------------------------------------------------------|
B:-------------------------------7-7-7-7-7-7-7-7-7-7-7-7-|
G:---6-6-6-6-6-6-6-6-6-6--6-6-6--7-7-7-7-7-7-7-7-7-7-7-7-|
D:---7-7-7-7-7-7-7-7-7-7--7-7-7--7-7-7-7-7-7-7-7-7-7-7-7-|
A:---7-7-7-7-7-7-7-7-7-7--7-7-7--5-5-5-5-5-5-5-5-5-5-5-5-|
E:---5-5-5-5-5-5-5-5-5-5--5-5-5--------------------------|

  so, in the blanket she wanted...
e:------------------------------------|
B:------------------------------------|
G:-6-6-6-6-6-6-6-6-6------------------|
D:-7-7-7-7-7-7-7-7-7-----------7------|
A:-7-7-7-7-7-7-7-7-7-7--5-4-2--5------|
E:-5-5-5-5-5-5-5-5-5-5--3-2-0---------|


e:--------------------------|
B:--------------------------|
G:-----------7--7-9-7-6-----|
D:----4--7--------------9-7-|
A:-5------------------------|
E:--------------------------|

  verse
e:-----------------------------5--5-5-5--5--------------3-3--3-3-3--3-|
B:-7-7--7-7-7--7---------------5--5-5-5--5--7-7--7-7-7--2-2--2-2-2--2-|
G:-7-7--7-7-7--7--6--6-6-6--6--6--6-6-6--6--7-7--7-7-7--3-3--3-3-3--3-|
D:-7-7--7-7-7--7--7--7-7-7--7--5--5-5-5--5--7-7--7-7-7--0-0--0-0-0--0-|
A:-5-5--5-5-5--5--7--7-7-7--7--7--7-7-7--7--5-5--5-5-5----------------|
E:----------------5--5-5-5--5--5--5-5-5--5----------------------------|


e:-3-3--3-3-3--3---------------------|
B:-3-3--3-3-3--3--7-7-7---------7-7--|
G:-4-4--4-4-4--4--7-7-7--6-6-6--7-7--|
D:-5-5--5-5-5--5--7-7-7--7-7-7--7-7--|
A:-5-5--5-5-5--5--5-5-5--7-7-7--5-5--|
E:-3-3--3-3-3--3---------5-5-5-------|


  1, 2, 3, 4 tell the people what you want

   It was an itsy, bitsy, teenie, weenie, yellow polka-dot bikini
e:---------------------------------------------------------------|
B:---------------------------------------7-7-7-7-7-7-7-7-7-7-7-7-|
G:-----------6-6-6-6-6-6-6-6-6-6--6-6-6--7-7-7-7-7-7-7-7-7-7-7-7-|
D:-----------7-7-7-7-7-7-7-7-7-7--7-7-7--7-7-7-7-7-7-7-7-7-7-7-7-|
A:-----------7-7-7-7-7-7-7-7-7-7--7-7-7--5-5-5-5-5-5-5-5-5-5-5-5-|
E:-----------5-5-5-5-5-5-5-5-5-5--5-5-5--------------------------|

  that she wore for the first time today
e:--------------------------------------|
B:----------------------7-7-7-7-7-7-7-7-|
G:-6-6-6-6-6-6-6-6-6-6--7-7-7-7-7-7-7-7-|
D:-7-7-7-7-7-7-7-7-7-7--7-7-7-7-7-7-7-7-|
A:-7-7-7-7-7-7-7-7-7-7--5-5-5-5-5-5-5-5-|
E:-5-5-5-5-5-5-5-5-5-5------------------|

  an itsy, bitsy, teenie, weenie, yellow polka dot bikini
e:-------------------------------------------------------|
B:-------------------------------7-7-7-7-7-7-7-7-7-7-7-7-|
G:---6-6-6-6-6-6-6-6-6-6--6-6-6--7-7-7-7-7-7-7-7-7-7-7-7-|
D:---7-7-7-7-7-7-7-7-7-7--7-7-7--7-7-7-7-7-7-7-7-7-7-7-7-|
A:---7-7-7-7-7-7-7-7-7-7--7-7-7--5-5-5-5-5-5-5-5-5-5-5-5-|
E:---5-5-5-5-5-5-5-5-5-5--5-5-5--------------------------|

  so, in the blanket she wanted...
e:------------------------------------|
B:------------------------------------|
G:-6-6-6-6-6-6-6-6-6------------------|
D:-7-7-7-7-7-7-7-7-7-----------7------|
A:-7-7-7-7-7-7-7-7-7-7--5-4-2--5------|
E:-5-5-5-5-5-5-5-5-5-5--3-2-0---------|





hillo son mex

03/01/14
Tap to rate this tab
# A B C D E F G H I J K L M N O P Q R S T U V W X Y Z