Song name
# A B C D E F G H I J K L M N O P Q R S T U V W X Y Z

Bbq Chickens - Middle tab

middle


bbq chickens


TRANSCRIBED BY RUDY GUZMAN


guzman_84@hotmail.com




                  x2                           
e:------------------|
B:------------------|
G:------------------|
D:-4-5-4-5-4-5------|
A:-2-3-2-3-2-3--5-5-|
E:--------------3-3-|


e:-------------------------------------------------------------|
B:-------------------------------------------------------------|
G:-3-3-3-3-3-3-3-3-3-3-3-3-3-3-3-3-3-3-3-3-3-3-3-3-3-3-3-3-3-3-|
D:-4-4-4-4-4-4-4-4-4-4-4-4-4-4-4-4-4-4-4-4-4-4-4-4-4-4-4-4-4-4-|
A:-4-4-4-4-4-4-4-4-4-4-4-4-4-4-4-4-4-4-4-4-4-4-4-4-4-4-4-4-4-4-|
E:-2-2-2-2-2-2-2-2-2-2-2-2-2-2-2-2-2-2-2-2-2-2-2-2-2-2-2-2-2-2-|


e:---------------------|
B:---------------------|
G:---------------------|
D:-4-5-4-5-4-5---------|
A:-2-3-2-3-2-3--5-5--4-|
E:--------------3-3--2-|

e:-------------------|
B:-------------------|
G:-------------------|
D:----5b-------------|
A:-5------6-7-8-9--5-|
E:-3------4-5-6-7--3-|



hillo son mex

03/01/14
Tap to rate this tab
# A B C D E F G H I J K L M N O P Q R S T U V W X Y Z