Song name
# A B C D E F G H I J K L M N O P Q R S T U V W X Y Z

Bbq Chickens - Winnie The Pooh tab

winnie the pooh


bbq chickens



 * felicidades princess b - happy birthday cumpleaņera 2 de feb. *

                                               
e:---------------------------------|
B:---------------------------------|
G:---------------------------------|
D:-7-7-7--8-8-8-8--7-7-7--10-10--8-|
A:-5-5-5--6-6-6-6--5-5-5--8--8---6-|
E:---------------------------------|

e:---------------------------------|
B:---------------------------------|
G:---------------------------------|
D:-7-7-7--8-8-8-8--7-7-7-----------|
A:-5-5-5--6-6-6-6--5-5-5--8--8-8-8-|
E:------------------------6--6-6-6-|

  gt1                              x2
e:----------------------------------|
B:----------------------------------|
G:----------------------------------|
D:----------------------------------|
A:-5-5--5--8-8--8--7-7--7--10-10-10-|
E:-3-3--3--6-6--6--5-5--5--8--8--8--|

  gt2                              
e:----------------------------------|
B:----------------------------------|
G:----------------------------------|
D:----------------------------------|
A:-5-------8-------7-------10-------|
E:-3-------6-------5-------8--------|

                                  x4
e:----------------------------------|
B:----------------------------------|
G:----------------------------------|
D:----------------------------------|
A:-5-5--5--8-8--8--7-7--7--10-10-10-|
E:-3-3--3--6-6--6--5-5--5--8--8--8--|

e:--------------------------------------------|
B:--------------------------------------------|
G:--------------------------------------------|
D:-7----------8-----------7---------8---------|
A:-5----------6-----------5---------6---------|
E:--------------------------------------------|

e:---------------------------------|
B:---------------------------------|
G:---------------------------------|
D:-7-7-7--8-8-8-8--7-7-7--10-10--8-|
A:-5-5-5--6-6-6-6--5-5-5--8--8---6-|
E:---------------------------------|

e:---------------------------------|
B:---------------------------------|
G:---------------------------------|
D:-7-7-7--8-8-8-8--7-7-7-----------|
A:-5-5-5--6-6-6-6--5-5-5--8--8-8-8-|
E:------------------------6--6-6-6-|

e:---------------------------------|
B:---------------------------------|
G:---------------------------------|
D:-7-7-7--8-8-8-8--7-7-7--10-10--8-|
A:-5-5-5--6-6-6-6--5-5-5--8--8---6-|
E:---------------------------------|

e:---------------------------------|
B:---------------------------------|
G:---------------------------------|
D:-7-7-7--8-8-8-8--7-7-7-----------|
A:-5-5-5--6-6-6-6--5-5-5--8--8-8-8-|
E:------------------------6--6-6-6-|

  gt1                              x2
e:----------------------------------|
B:----------------------------------|
G:----------------------------------|
D:----------------------------------|
A:-5-5--5--8-8--8--7-7--7--10-10-10-|
E:-3-3--3--6-6--6--5-5--5--8--8--8--|

  gt2                              
e:----------------------------------|
B:----------------------------------|
G:----------------------------------|
D:----------------------------------|
A:-5-------8-------7-------10-------|
E:-3-------6-------5-------8--------|

                                  x4
e:----------------------------------|
B:----------------------------------|
G:----------------------------------|
D:----------------------------------|
A:-5-5--5--8-8--8--7-7--7--10-10-10-|
E:-3-3--3--6-6--6--5-5--5--8--8--8--|

e:--------------------------------------------|
B:--------------------------------------------|
G:--------------------------------------------|
D:-7----------8-----------7---------8---------|
A:-5----------6-----------5---------6---------|
E:--------------------------------------------|


e:------------------------------------------------------------|
B:------------------------------------------------------------|
G:------------------------------------------------------------|
D:-8----------------------------------------------------------|
A:-6----------------------------------------------------------|
E:------------------------------------------------------------|




hillo son mex

03/01/14 


- dia de destino 2 de febrero 2014 -
Tap to rate this tab
# A B C D E F G H I J K L M N O P Q R S T U V W X Y Z