Song name
# A B C D E F G H I J K L M N O P Q R S T U V W X Y Z

Bbq Chickens - I Hate The Cops tab

Band: BBQ CHICKENS
Song: I Hate The Cops
Tabs: yukwna@yahoo.com


(I Hate The Cops, The Cops) x2
E-|-----------------|-----------------------|---------------|------------|
B-|-----------------|-----------------------|---------------|------------|
G-|----7-7-7--------|-----9--x---9----------|---------------|------------|
D-|----7-7-7-9-x----|--9--9--x---9--7-7-7---|---------------|------------|
A-|----5-5-5-9-x----|--9--7--x---7--7-5-5---|---------------|------------|
E-|----------7-x----|--7------------5-5-5---|---------------|------------|
(I Hate The Cops. That's all I wanna say....)
E-|----------------|----------------|-----------------|----------------|
B-|----------------|----------------|-----------------|----------------|
G-|----7-7-7-------|--9-9-9---------|-----------------|----------------|
D-|----7-7-7-9-9-9-|--9-9-9--7--7-7-|-----------------|----------------|
A-|----5-5-5-9-9-9-|--7-7-7--7--7-7-|-----------------|----------------|
E-|----------7-7-7-|---------5--5-5-------------------|----------------|
(Salute the power....)                    (Is that what a man should do?)
E-|----------------|------3--------------|-----------------|-------------|
B-|----------------|------3--------------|-----------------|-------------|
G-|----5-----------|------4--------------|-----------------|-------------|
D-|----5-----------|------5--------------|-10--9--7--5-----|-------------|
A-|----3-----------|------5--------------|--8--7--5--3-----|----5--------|
E-|----------------|------3--------------|-----------------|----3--------|

E-|---------------|---------------------|------------------------------|
B-|---------------|-----7---------------|--------------7---------------|
G-|---7-7---7-7---|---9---9--7--6/7--9--|-7-7---7-7--9---9-7-6---------|
D-|-------7-------|---------------------|-----7------------------------|
A-|---------------|---------------------|------------------------------|
E-|---------------|---------------------|------------------------------|
Tap to rate this tab
# A B C D E F G H I J K L M N O P Q R S T U V W X Y Z