Song name
# A B C D E F G H I J K L M N O P Q R S T U V W X Y Z

Bbs Paranoicos - Ausencia tab

Help us improve GuitareTab! Take a short survey!
BBs paranoicos - ausencia

parte 1:

-----------------------------------------------------------
-----------------------------------------------------------
-----------------------------------------------------------
-99-44-66666-------44444-----------------------------------
-77-22-44444-77777-22222-----------------------------------
-------------55555-----------------------------------------



parte 2:


---------------------------------------------------------------
---------------------------------------------------------------
---------------------------------------------------------------
---------------------------------------------------------------
-55555--88888--10101--33333------------------------------------
-33333--66666--88888--11111------------------------------------


punteo 1 : no disponible aun


punteo 2:
--------------------------------------------------- 
-88-6-4-8---------------------------------------14-
----------55-8-5-8-7-5-8-10-12-10-12-15-12-10-8----
---------------------------------------------------
--------------------------------------------------- 

-------------------------------------------- 
------13-14-16-14-13-11-4-------------------
----13---------------------3-5-6-8-10-11-10-
--------------------------------------------
--------------------------------------------
--------------------------------------------


orden :

parte 1 ( x 4 )
parte 2 ( x 2 )
parte 1 ( x 4 ) o punteo 1
parte 2 ( x 2 )
parte 1 ( x 4 ) o punteo 2
final   ( x 1 ) 

Klaus_seebach@hotmail.com
Related for Ausencia tab