Song name
# A B C D E F G H I J K L M N O P Q R S T U V W X Y Z

Bbs - Bata tab

Song Title: Bata
By: BBS feat Kean Cipriano & Madeline Paraluman
Transcribed by: Aldrin Lirio
Email: fretstar@rock.com

For any correction or question please don't hesitate to contact me, Thnx!

Legend:

h	= hammer on
p	= pull off
'	= Hold
\/	= slide
~	= vibrate

Standard Tunning

Intro:
Chords: Bb-C-D-Eb (2x) (Distorted)

e|-------------------------------------------------------------------------------15----18p-18-|
B|-----18p(20)18~----15-18-18----------18-18----15-18-18----------18-18----15-18----18--------|
G|-/15------------15----------15/17-15-------15----------15/17-15-------15--------------------|
D|--------------------------------------------------------------------------------------------|
A|--------------------------------------------------------------------------------------------|
E|--------------------------------------------------------------------------------------------|

1st Verse:
Chords: Bb-C-D-Eb (2x) (Clean Tone)

Sa bawat galaw, napapatingin
Unti-unting tinuturo ka sa akin
Sa bawat ngiti na may lambing
Ako'y unti-unti mong pinapa-ibig

Chorus:
Chords: Bb-C-D-Eb (3x) G-C (Distorted)

Katulad ka ng isang umagang may ngiti
Katulad ka ng hangin sa aki'y dumadampi
Na ako sayo'y maghihintay
Na ako sayo'y nag-aabang
Katulad ng isang bata na umiibig

e|-------------------------------------------------------------------------------15----18p-18-|
B|-----18p(20)18~----15-18-18----------18-18----15-18-18----------18-18----15-18----18--------|
G|-/15------------15----------15/17-15-------15----------15/17-15-------15--------------------|
D|--------------------------------------------------------------------------------------------|
A|--------------------------------------------------------------------------------------------|
E|--------------------------------------------------------------------------------------------|


2nd Verse:
Chords: Bb-C-D-Eb (2x) (Clean Tone)

Sa bawat gabi, may buwan man o wala
Ikaw ang nasa isip at sa panaginip
Sa bawat araw, nais kang matanaw
Ang bilis ng oras pag ika'y kapiling

(Repeat Chorus)

Adlib

e|--------------------------------------------------------------------------------------------|
B|-----18p(20)18~----15-18-18----------18-18----15-18-18----------18-18--18p(20)-18~----------|
G|-/15------------15----------15/17-15-------15----------15/17-15-----------------------------|
D|--------------------------------------------------------------------------------------------|
A|--------------------------------------------------------------------------------------------|
E|--------------------------------------------------------------------------------------------|

e|--------------------------------------------------------------------------------------------|
B|-------3---------------3---------------3------------------8---------8-10--------------------|
G|-5h3-5---5-3---3-5h3-5---5-3---3-5h3-5---5-3----8-10h8-10---10-8-10-------------------------|
D|-------------5---------------5---------------10---------------------------------------------|
A|--------------------------------------------------------------------------------------------|
E|--------------------------------------------------------------------------------------------|

e|-10-10-10-10h11-11-11-11h13-13-13-13/15~~-15\13~--------------------------------------------|
B|--------------------------------------------------------------------------------------------|
G|--------------------------------------------------------------------------------------------|
D|--------------------------------------------------------------------------------------------|
A|--------------------------------------------------------------------------------------------|
E|--------------------------------------------------------------------------------------------|

Chords: Bb-C-D-Eb (3x) G-C-A-B, E-F#

Katulad ka ng isang umagang may ngiti
Katulad ka ng hangin sa aki'y dumadampi
Na ako sayo'y maghihintay
Na ako sayo'y nag-aabang
Katulad ng isang bata

Chords: B-C#-Eb-E (3x) Ab-C#

Katulad ka ng isang umagang may ngiti
Katulad ka ng hangin sa aki'y dumadampi
Na ako sayo'y maghihintay
Na ako sayo'y nag-aabang
Katulad ng isang bata na umiibig

Chords: B-C#-Eb-E (3x) Ab-E-Ab-C#

Katulad ka ng isang umagang may ngiti
Katulad ka ng hangin sa aki'y dumadampi
Na ako sayo'y maghihintay
Na ako sayo'y nag-aabang
Katulad ng isang bata
Katulad ng isang bata
Katulad ng isang bata na umiibig

Outro:
Chords: B-C#-Eb-E (2x)

e|-------------------------------------------------------------------------------15----18p-18-|
B|-----18p(20)18~----15-18-18----------18-18----15-18-18----------18-18----15-18----18--------|
G|-/15------------15----------15/17-15-------15----------15/17-15-------15--------------------|
D|--------------------------------------------------------------------------------------------|
A|--------------------------------------------------------------------------------------------|
E|--------------------------------------------------------------------------------------------|

This song is dedicated to my wife Jennifer Lirio \m/(//_^)\m/
Tap to rate this tab
# A B C D E F G H I J K L M N O P Q R S T U V W X Y Z