Song name
# A B C D E F G H I J K L M N O P Q R S T U V W X Y Z

Bbs - Pawiin tab

Intro: G Am Bm C

Verse:(pluck the chords)

G            Am
 Nagpaalam ka hindi ako handa
Bm                C
 Bumabaha sa aking unan
G
 anong gusto kong mangyari
Am
 wala na ngang masabi
Bm                   C
 dahil bigla kang nawala


refrain
       Am         Bm
 papawiin daw ang luha
              Am            C
 hinding hindi naman pababayaan


chorus:
      G                      Am
 aalalayan daw hanggang sa mawala
       Bm              C
 ang sakit na nararamdaman
           G
 ito ba ang iyong diskarte
      Am                Bm           C
 para lang masabi na ok lang ang lahat
           G   Am       Bm     C
 basta papawiin.. papawiin..


Adlib: G- Am- Bm- C-
e------------------------------------|
B----88-8s10--/12----12h13-12--------|
G----------------------------12------|
D------------------------------------|
A------------------------------------|
E------------------------------------|


e--------------------------8h10-10---|
B------------8------8h10p8-----------|
G----1212-7s9------------------------|
D------------------------------------|
A------------------------------------|
E------------------------------------|


refrain
       Am         Bm
 papawiin daw ang luha
              Am            C
 hinding hindi naman pababayaan


Chorus2:(Twice)
      G                      Am
 aalalayan daw hanggang sa mawala
       Bm              C
 ang sakit na nararamdaman
           G
 ito ba ang iyong diskarte
      Am                Bm           C
 para lang masabi na ok lang ang lahat

(Same Chords as Chorus)
aalalayan daw hanggang sa mawala
ang sakit na nararamdaman
hinding hindi iiwan hanggang sa masanay na
tayo'y walang halaga

akala ko nung una
meron nang aalalay bakit ngayon biglang nawala
sana'y di nalang sinabi para nakadiskarte
kung iiwan mo din pala
papawiin.. papawiin..daw..
Tap to rate this tab
# A B C D E F G H I J K L M N O P Q R S T U V W X Y Z