Song name
# A B C D E F G H I J K L M N O P Q R S T U V W X Y Z

Be Bop Deluxe - Panic In The World tab

                   Panic In The World - Be Bop Deluxe

Tabbed by: axe victim
Email:

Tuning: standard


Intro: Mute chords with palm and gradually release pressure and strum harder to increase 
over two bars of A, then do the same with two bars of D.


   A    (for two bars )
e|-x-------------------------------------------------------------------------|
B|-2----2----2----2----2----2----2----2--------------------------------------|
G|-2----2----2----2----2----2----2----2--------------------------------------|
D|-2----2----2----2----2----2----2----2--------------------------------------|
A|-0----0----0----0----0----0----0----0--------------------------------------|
E|-x-------------------------------------------------------------------------|


   D    ( for two bars )
e|-x-------------------------------------------------------------------------|
B|-3----3----3----3----3----3----3----3--------------------------------------|
G|-2----2----2----2----2----2----2----2--------------------------------------|
D|-4----4----4----4----4----4----4----4--------------------------------------|
A|-0----0----0----0----0----0----0----0--------------------------------------|
E|-x-------------------------------------------------------------------------|

Verses:  steady rhythym and volume now.  Use fretting hand thumb for optional bassline 
6th string if you like.

            "In  the   ci - ties  there is...
   A
e|-x-------------------------------------------------------------------------|
B|-2----2----2----2----2----2----2----2--------------------------------------|
G|-2----2----2----2----2----2----2----2--------------------------------------|
D|-2----2----2----2----2----2----2----2--------------------------------------|
A|-0----0----x----x----0----0----x----x--------------------------------------|
E|-x----x----2----0----x----x----2----0--------------------------------------|


 ..talk of        rain      and   of...
   A
e|-x-------------------------------------------------------------------------|
B|-2----2----2----2----2----2----2----2--------------------------------------|
G|-2----2----2----2----2----2----2----2--------------------------------------|
D|-2----2----2----2----2----2----2----2--------------------------------------|
A|-0----0----x----x----0----0----x----x--------------------------------------|
E|-x----x----2----0----x----x----2----0--------------------------------------|


  fire."
   D
e|-x-------------------------------------------------------------------------|
B|-3----3----3----3----3----3----3----3--------------------------------------|
G|-2----2----2----2----2----2----2----2--------------------------------------|
D|-4----4----4----4----4----4----4----4--------------------------------------|
A|-0----0----x----x----0----0----x----x--------------------------------------|
E|-x----x----2----0----x----x----2----0--------------------------------------|

   D
e|-x-------------------------------------------------------------------------|
B|-3----3----3----3----3----3----3----3--------------------------------------|
G|-2----2----2----2----2----2----2----2--------------------------------------|
D|-4----4----4----4----4----4----4----4--------------------------------------|
A|-0----0----x----x----0----0----x----x--------------------------------------|
E|-x----x----2----0----x----x----2----0--------------------------------------|


Chorus:


            "Uh  oh,             uh oh,

...F#m.................E
e|-2----2----2----2----0----0----0----0--------------------------------------|
B|-2----2----2----2----0----0----0----0--------------------------------------|
G|-2----2----2----2----1----1----1----1--------------------------------------|
D|-4----4----4----4----2----2----2----2--------------------------------------|
A|-4----4----4----4----2----2----2----2--------------------------------------|
E|-2----2----2----2----0----0----0----0--------------------------------------|


     ...there's panic in the...
   D ( let ring...)
e|-2-------------------------------------------------------------------------|
B|-3-------------------------------------------------------------------------|
G|-2-------------------------------------------------------------------------|
D|-0-------------------------------------------------------------------------|
A|---------------------------------------------------------------------------|
E|---------------------------------------------------------------------------|

...world."
   A
e|-x-------------------------------------------------------------------------|
B|-2----2----2----2----2----2----2----2--------------------------------------|
G|-2----2----2----2----2----2----2----2--------------------------------------|
D|-2----2----2----2----2----2----2----2--------------------------------------|
A|-0----0----x----x----0----0----x----x--------------------------------------|
E|-x----x----2----0----x----x----2----0--------------------------------------|


            "Uh  oh,             uh oh,
...F#m..................E
e|-2----2----2----2----0----0----0----0--------------------------------------|
B|-2----2----2----2----0----0----0----0--------------------------------------|
G|-2----2----2----2----1----1----1----1--------------------------------------|
D|-4----4----4----4----2----2----2----2--------------------------------------|
A|-4----4----4----4----2----2----2----2--------------------------------------|
E|-2----2----2----2----0----0----0----0--------------------------------------|


     ...there's panic in the...
   D ( let ring...)
e|-2-------------------------------------------------------------------------|
B|-3-------------------------------------------------------------------------|
G|-2-------------------------------------------------------------------------|
D|-0-------------------------------------------------------------------------|
A|---------------------------------------------------------------------------|
E|---------------------------------------------------------------------------|

 ..world."
   A                                  (for two bars )
e|-x-------------------------------------------------------------------------|
B|-2----2----2----2----2----2----2----2--------------------------------------|
G|-2----2----2----2----2----2----2----2--------------------------------------|
D|-2----2----2----2----2----2----2----2--------------------------------------|
A|-0----0----0----0----0----0----0----0--------------------------------------|
E|-x-------------------------------------------------------------------------|


   D                                   ( for two bars )
e|-x-------------------------------------------------------------------------|
B|-3----3----3----3----3----3----3----3--------------------------------------|
G|-2----2----2----2----2----2----2----2--------------------------------------|
D|-4----4----4----4----4----4----4----4--------------------------------------|
A|-0----0----0----0----0----0----0----0--------------------------------------|
E|-x-------------------------------------------------------------------------|


   A                                   ( for two bars )
e|-x-------------------------------------------------------------------------|
B|-2----2----2----2----2----2----2----2--------------------------------------|
G|-2----2----2----2----2----2----2----2--------------------------------------|
D|-2----2----2----2----2----2----2----2--------------------------------------|
A|-0----0----x----x----0----0----x----x--------------------------------------|
E|-x----x----2----0----x----x----2----0--------------------------------------|


   D                                      ( for two bars )
e|-x-------------------------------------------------------------------------|
B|-3----3----3----3----3----3----3----3--------------------------------------|
G|-2----2----2----2----2----2----2----2--------------------------------------|
D|-4----4----4----4----4----4----4----4--------------------------------------|
A|-0----0----x----x----0----0----x----x--------------------------------------|
E|-x----x----2----0----x----x----2----0--------------------------------------|


Lyrics:

Uh oh uh oh
In the cities there is talk of rain and of fire.
It was on the air today
It almost filled me with desire.
All our skies are grey
They say the dreamers line the streets.
Looking out from hollow houses, rivers running at their feet.

Uh oh, uh oh
There's panic in the world
Uh oh, uh oh
There's panic in the world

My love and I we escaped we left no trace
For they had raped both body and soul.
The taste was much too hard to swallow
We ran naked through the cold.

Above our heads in fiery red
The clouds they bled like open wounds across the sky
The wings of many nations
Falling, burning, turning...
Trying oh, so hard to die.

Uh oh, uh oh
There's panic in the world
Uh oh, uh oh
There's panic in the world

We'll find an island
We'll burn the maps
We'll lock our hearts and throw the keys into the sea.
Let's be survivors
They'll never find us
It's all behind us
I know a place they've never been.

In new horizons
In golden swarms
In comes tomorrow
It's thunderstorms over the hill.
The future falls beyond these walls, destiny calling
Like the dawn, a sweeter thrill.

Uh oh, uh oh
There's panic in the world
Uh oh, uh oh
There's panic in the world

Panic in the world...


| /  slide up
| \  slide down
| h  hammer-on
| p  pull-off
| ~  vibrato
| +  harmonic
| x  Mute note
===============================================================================
Tap to rate this tab
# A B C D E F G H I J K L M N O P Q R S T U V W X Y Z