Song name
# A B C D E F G H I J K L M N O P Q R S T U V W X Y Z

Be Bop Deluxe - Rocket Cathedrals tab

intro

e----------------------------------------------2------|
b-------------------------------------------2--3--2---|
g-------------------------------------------2--2--2---|
d-------2-4-2-------1-2-3-4-------2-4-2-----2--0--2---|
a-0-3-4-------3-4-2---------0-3-4-------3-4-0-----0---|  x2
E-----------------------------------------------------|


verse

e----5-5-------5-5------12-12----------12-12------10-10------------------------2--------2-----|
b----5-5-------5-5------12-12----------12-12------10-10---------------------2--3--2--2--3--2--|
g-/6-----7p5h6------/13-------14p12h13--------/11-------12p10h11-10h11------2--2--2--2--2--2--|
d----------------------------------------------------------------------12---2--0--2--2--0--2--|
a---------------------------------------------------------------------------0-----0--0-----0--|
E---------------------------------------------------------------------------------------------|


Chorus(?)

e-------------------------------------------------------------------2--------------|
b----------------------------------------------------------------2--3--2--2--3--2--|
g-2-----2-4-2----------------------------------------------------2--2--2--2--2--2--|   x2
d-0-3h4-------4--2-----2-4-2-------------------------------------2--0--2--2--0--2--|
a----------------0-3h4-------4--------2-4-2------------2-4-2-----0-----0--0-----0--|
E-------------------------------0-3-4-------3-4--0-3-4-------3-4-------------------|


solo
(7^9 means bend 7 up to 9)

e------   ---------   -19p17----21p17-----|
b-----5   -------10   -------17-------17--|
g-7^9-- x4-12^14--- x4--------------------| (not sure the number of times but its either 4 or 8)
d------   ---------   --------------------|
a------   ---------   --------------------|
e------   ---------   --------------------|

then repeat the entire thing
Tap to rate this tab
# A B C D E F G H I J K L M N O P Q R S T U V W X Y Z