Song name
# A B C D E F G H I J K L M N O P Q R S T U V W X Y Z

Be Bop Deluxe - Night Creatures tab

-------------------------------------------------------------------------------
			     Night Creatures - Be Bop Deluxe
-------------------------------------------------------------------------------
Tabbed by: axe victim
Email:

From the bands debut album, Axe Victim.
Just the basic chords, listen to the tune to get the strumming 
pattern, its fairly simple.  You will need your thumb for the 
first two chords.  


Tuning:EADGBe

| /  slide up
| \  slide down
|C/G chord/bass note
|(9) optional notes

Intro: Acoustic guitar.


___Fmaj9________________________Cmaj7________________________

e|-0---------------------------|-/0--------------------------|
B|-1---------------------------|-/8--------------------------|
G|-0---------------------------|-/0--------------------------|
D|-3---------------------------|-/10-------------------------|
A|-3---------------------------|-/10-------------------------|
E|-1---------------------------|-/8--------------------------|



Verses:


___Bm____________________________Am______________C_______G___________
....."Well all her jewels were phoney, but they looked as nice as ice.."
e|-7---------------------------|-5---------------0-------3-----------|
B|-7---------------------------|-5---------------1-------0-----------|
G|-7---------------------------|-5---------------0-------0-----------|
D|-9---------------------------|-7---------------2-------0-----------|
A|-9---------------------------|-7---------------3-------2-----------|
E|-7---------------------------|-5-----------------------3-----------|



___Am______________C/G___________F______________________________
..........."Freezing the light behind the...stairs."
e|-0---------------0-----------|-1------------------------------|
B|-1---------------1-----------|-1------------------------------|
G|-2---------------0-----------|-2------------------(2--/9\--2)-|
D|-2---------------2-----------|-3------------------------------|
A|-0---------------------------|-3------------------------------|
E|-----------------3-----------|-1------------------------------|



___D___________Dsus4___D____

e|-2-----------3-------2----|
B|-3-----------3-------3----|
G|-2-----------2-------2----|
D|-0-----------0-------0----|
A|--------------------------|
E|--------------------------|


Chorus:


___Fmaj9________________________Cmaj7________________________
"Night creatures..................strangest features..." 
e|-0---------------------------|-/0--------------------------|
B|-1---------------------------|-/8--------------------------|
G|-0---------------------------|-/0--------------------------|
D|-3---------------------------|-/10-------------------------|
A|-3---------------------------|-/10-------------------------|
E|-1---------------------------|-/8--------------------------|


...etc, repeat. 





Tap to rate this tab
 
# A B C D E F G H I J K L M N O P Q R S T U V W X Y Z