Song name
# A B C D E F G H I J K L M N O P Q R S T U V W X Y Z

Be Bop Deluxe - Lost In The Neon World tab

-------------------------------------------------------------------------------
		Lost In The Neon World - Be Bop Deluxe
-------------------------------------------------------------------------------
Tabbed by: axe victim
Email: See my 'Ultimate Guitar' profile.

Part 4 of the 'Modern Music' suite (from the Modern Music album)
Love playing this one, and that country picking part at the
beginning.


Tuning: EADGBe

| /  slide up
| \  slide down
| h  hammer-on
| p  pull-off
| x  mute note
| G/B chord/bass note
|(x07655) chord shape


Intro: fast country style picking.


___G/F#__G_____G/C#__G/D______________C_____G/B_________Am7__________

e|----------------------------------|-------------------3-3-3-3------|
B|-----0-----0----------------------|-------------------1-1-1-1------|
G|---0-----0-------0-----0----------|-----0-----0-------2-2-2-2------|
D|-4-----5-------0-----0------------|---2-----0---------2-2-2-2------|
A|-------------4-----5----------0-2-|-3-----2------0----0-0-0-0------|
E|----------------------------3-----|--------------------------------|


...a few times then:


___G/F#__G_____G/C#__G/D______________C_____G/B___G/A____G______

e|----------------------------------|-----------------------------------|
B|-----0-----0----------------------|-----------------------------------|
G|---0-----0-------0-----0----------|-----0-----0-----0------0----------|
D|-4-----5-------0-----0------------|---2-----0-----0------0------0---0-|
A|-------------4-----5--------0-2---|-3-----2-----0---------------------|
E|--------------------------3-------|--------------------3------1---2---|

___G_____________________________________________________________

e|-----3-3---3-3-------3-3---0-0---|------3-3---3-3-3-3----------|
B|-----3-3---3-3-------3-3---0-0---|------3-3---3-3-3-3----------|
G|-----0-0---0-0-------0-0---0-0---|------0-0---0-0-0-0----------|
D|-----0-0---0-0-------0-0---0-0---|------0-0---0-0-0-0----------|
A|-----x---------------x-----------|------x----------------------|
E|-2h3---3---3-3---2h3---3---3-3---|-2h3----3---3-3-3-3----------|


Verse:

___Cadd9__________G6/B____________A7sus4_________D______________
" this jet age life is getting worse I feel I'm half a universe..."
e|-0---0-0---0----0--0-0---0----|-0---0-0---0----2---2-2---2----|
B|-3---3-3---3----3--3-3---3----|-3---3-3---3----3---3-3---3----|
G|-0---0-0---0----0--0-0---0----|-0---0-0---0----2---2-2---2----|
D|-2---2-2---2----0--0-0---0----|-2---2-2---2----0---0-0---0----|
A|-3---3-3---3----2--2-2---2----|-0---0-0---0-------------------|
E|--------------------------------------------------------------|


___G/F#__G_____G/C#__G/D_____________C__________________G____________
"..away....."
e|----------------------------------|-------------------3-3-3-3------|
B|-----0-----0----------------------|-------------------3-3-3-3------|
G|---0-----0-------0-----0----------|-----0-----0-------0-0-0-0------|
D|-4-----5-------0-----0------------|---2-----0---------0-0-0-0------|
A|-------------4-----5----------0-2-|-3------------------------------|
E|----------------------------3-----|-------2-------3---3-3-3-3------|


___Cadd9__________G6/B____________A7sus4_________D______________
" I left my home some time ago to fight the ceatures of the..."
e|-0---0-0---0----0--0-0---0----|-0---0-0---0----2---2-2---2----|
B|-3---3-3---3----3--3-3---3----|-3---3-3---3----3---3-3---3----|
G|-0---0-0---0----0--0-0---0----|-0---0-0---0----2---2-2---2----|
D|-2---2-2---2----0--0-0---0----|-2---2-2---2----0---0-0---0----|
A|-3---3-3---3----2--2-2---2----|-0---0-0---0-------------------|
E|------------------------------|-------------------------------|

___G/F#__G_____G/C#__G/D_____________C__________________G____________
"...USA......"
e|----------------------------------|-------------------3-3-3-3------|
B|-----0-----0----------------------|-------------------3-3-3-3------|
G|---0-----0-------0-----0----------|-----0-----0-------0-0-0-0------|
D|-4-----5-------0-----0------------|---2-----0---------0-0-0-0------|
A|-------------4-----5----------0-2-|-3------------------------------|
E|----------------------------3-----|-------2-------3---3-3-3-3------|


___D_________________________________A_( x07655 )__________________
" You tell me that this neon world is free..."
e|-2-----2-2-----2---2---2-2-------|-----5-----7-----8------9\-----|
B|-3-----3-3-----3---3---3-3-------|-------------------------------|
G|-2-----2-2-----2---2---2-2-------|-5/6---6/7---7/8----8/9--\-----|
D|-0-----0-0-----0---0---0-0-------|-------------------------------|
A|---------------------------------|-0-----------------------------|
E|---------------------------------|-------------------------------|

___D_________________________________Cadd9_________________________
" You say this is the place I ought to be..."
e|-2-----2-2-----2---2---2-2-------|-0-----------------------------|
B|-3-----3-3-----3---3---3-3-------|-3-----------------------------|
G|-2-----2-2-----2---2---2-2-------|-0-----------------------------|
D|-0-----0-0-----0---0---0-0-------|-2-----------------------------|
A|---------------------------------|-3-----------------------------|
E|---------------------------------|-------------------------------|


___Cadd9__________G/B_____________A7sus4_________D______________
"The time has come for me to go,you say its fast but it's feeling slow.."
e|-------3---3---------3---3----|-------3---3----------2---2----|
B|-------3---3---------3---3----|-------3---3----------3---3----|
G|-------0---0---------0---0----|-------0---0--------2-2---2----|
D|-----2-------------0----------|-----2----------0-----0---0----|
A|-3--------------2-------------|-0-----------------------------|
E|------------------------------|-------------------------------|


___G/F#__G_____G/C#__G/D_____________C__________________G____________
" today.................................................neon world..."
e|----------------------------------|-------------------3-3-3-3------|
B|-----0-----0----------------------|-------------------3-3-3-3------|
G|---0-----0-------0-----0----------|-----0-----0-------0-0-0-0------|
D|-4-----5-------0-----0------------|---2-----0---------0-0-0-0------|
A|-------------4-----5----------0-2-|-3------------------------------|
E|----------------------------3-----|-------2-------3---3-3-3-3------|



Segue into 'Dance Of The Uncle Sam Humanoids'



| /  slide up
| \  slide down
| h  hammer-on
| p  pull-off
| ~  vibrato
| +  harmonic
| x  Mute note
===============================================================================
Tap to rate this tab
 
# A B C D E F G H I J K L M N O P Q R S T U V W X Y Z