Song name
# A B C D E F G H I J K L M N O P Q R S T U V W X Y Z

Be Bop Deluxe - Visions Of Endless Hopes tab

-------------------------------------------------------------------------------
Visions Of Endless Hopes - Be Bop Deluxe
-------------------------------------------------------------------------------

Tabbed by: axe victim

Email: Leave a message on my Ultimate Guitar profile.

This is an instrumental tune from the  Drastic Plastic album. 
It sounds best with a 12 string guitar but any acoustic will do. 
I think the time signature is 6/4 but it feels quite loose so 
slow it down or speed it up if you want. 

I have tabbed the basic parts, you can figure out which ones 
to repeat if you know the track, it's quite simple. You will
have to tune your sixth string down to 'D'.  

Tuning: DADGBe - Drop D tuning. 12 string guitar.


Intro: Big D chord(000232). Then...

First part:


___D6______________A6______________G6_____________

e|---------2------/9---------------7--------------|                
B|---------3------/10--------------8--------------|                  
G|---------4------/11--------------9--------------|                
D|---------0-----------------------0--------------|                   
A|-----0-----------------------0------------------|                
E|-0----------------------------------------------|                

          
Repeat as necessary...


Second part:


___Bm______________Asus4__________________________

e|------------------------------------------------|
B|-------------------------3---2------------------|
G|---------0--------------------------------------|
D|-----4-------4-------2--------------------------|
A|-2---------------0------------------------------|
E|------------------------------------------------|


Repeat as necessary until...


___D______________________________________________

e|---------------------2---2----------------------|
B|-----------------3-------3----------------------|
G|-------------2-----------2----------------------|
D|---------0---------------0----------------------|
A|-----0-------------------0----------------------|
E|-0-----------------------0----------------------|


Third part:

Rake chords slightly...

___Dm______________Dm______Gm___________________

e|-1---0-----------5-------3--------------------|
B|-3-----3---------6-------3--------------------|
G|-2-------2-------7-------3--------------------|
D|-0---------------0-------0--------------------|
A|-0--------------------------------------------|
E|-0--------------------------------------------|


Repeat as necessary...


___Gm______D_______________Gm______D____________ 

e|-3---6---2---------------3---6---2------------|
B|-3-------3---------------3-------3------------|
G|-3-------2---------------3-------2------------|
D|-0-------0-----------0---0-------0------------|
A|----------------------------------------------|
E|----------------------------------------------|


Repeat as necessary until...


___Aadd9__________________________________________

e|-----------------0------------------------------|
B|-------------0----------------------------------|
G|---------6--------------------------------------|
D|-----7------------------------------------------|
A|-0----------------------------------------------|
E|------------------------------------------------|


Ending...


___Bm______________Asus4__________________________

e|------------------------------------------------|
B|-------------------------3---2------------------|
G|---------0--------------------------------------|
D|-----4-------4-------2--------------------------|
A|-2---------------0-------------------------0-1--|
E|------------------------------------------------|


___Bm______________Asus4__________________________

e|------------------------------------------------|
B|-------------------------3---2------------------|
G|---------0--------------------------------------|
D|-----4-------4-------2--------------------------|
A|-2---------------0------------------------------|
E|------------------------------------------------|


___D______________________________________________

e|---------------------2---14---------------------|
B|-----------------3-------15---------------------|
G|-------------2-----------14---------------------|
D|---------0--------------------------------------|
A|-----0------------------------------------------|
E|-0----------------------------------------------|




| / slide up
| \ slide down
| h hammer-on
| p pull-off
| ~ vibrato
| + harmonic
| x Mute note
===============================================================================
Tap to rate this tab
# A B C D E F G H I J K L M N O P Q R S T U V W X Y Z