Song name
# A B C D E F G H I J K L M N O P Q R S T U V W X Y Z

Be Bop Deluxe - Love In Flames tab

-------------------------------------------------------------------------------
		Love In Flames - Be Bop Deluxe
-------------------------------------------------------------------------------

Tabbed by: axe victim

Email: Leave a message on my  Ultimate Guitar  profile.

Blistering track from the Drastic Plastic album.

Tuning: EADGBe

| h hammer-on
| p pull-off

Intro: Fast drums...


Main riff:


___E___________Bb___________________E___________Bb_________________

e|--------------------------------|--------------------------------|
B|--------------------------------|--------------------------------|
G|-1-----------3------------------|-1-----------3------------------|
D|-2-----------3------------------|-2-----------3------------------|
A|-2-----------1------------------|-2-----------1------------------|
E|-0------------------------------|-0------------------------------|
 
 | 1 - & - 2 - & - 3 - & - 4 - & -| 1 - & - 2 - & - 3 - & - 4 - & -|


A few times then...


Verse:


___E___________Bb___________________E___________Bb_________________
 I love you with a fever         I love you like a fire
e|--------------------------------|--------------------------------|
B|--------------------------------|--------------------------------|
G|-1-----------3------------------|-1-----------3------------------|
D|-2-----------3------------------|-2-----------3------------------|
A|-2-----------1------------------|-2-----------1------------------|
E|-0------------------------------|-0------------------------------|


___E___________Bb___________________E___________Bb_________________
   Everything is burning with the flames of my desire
e|--------------------------------|--------------------------------|
B|--------------------------------|--------------------------------|
G|-1-----------3------------------|-1-----------3------------------|
D|-2-----------3------------------|-2-----------3------------------|
A|-2-----------1------------------|-2-----------1------------------|
E|-0------------------------------|-0------------------------------|



Chorus: ( repeat 4 times )


___C________________________________________________G_______Bb_____ 
...Flames...                                        love    in...
e|--------------------------------|--------------------------------|
B|--------------------------------|--------------------------------|
G|-5---5---5---5---5---5---5---5--|-5-----------------------3------|
D|-5---5---5---5---5---5---5---5--|-5---------------5-------3------|
A|-3---3---3---3---3---3---3---3--|-3---------------5-------1------|
E|--------------------------------|-----------------3--------------|



Repeat verse and chorus.


Then, Riff 2:


___B__C__B__A______________B________G_______________G__A__G__F__G__
   Only the ash            re   -   mains         everythings up in...
e|--------------------------------|--------------------------------|
B|--------------------------------|--------------------------------|
G|--------------------------------|--------------------------------|
D|--------------------------------|--------------------------------|
A|-9--10-9--7--------------9------|-5---------------5--7--5--3--5--|
E|-7--8--7--5--------------7------|-3---------------3--5--3--1--3--|


Riff 3:

___E_______________________________________________________________ 
...flames...
e|--------------------------------|--------------------------------|
B|--------------------------------|--------------------------------|
G|--------------------------------|--------------------------------|
D|---------2-----------0----------|--------------------------------|
A|-2------------------------------|-4---------------2--h4---2--h4--|
E|-0---------------0-------0------|---------0----------------------|

 | 1 - & - 2 - & - 3 - & - 4 - & -| 1 - & - 2 - & - 3 - & - 4 - & -|


Repeat Riff 3 a few times. 

Repeat verse and chorus.

Repeat Riff 2 and riff 3.


Ending:


___D_______________________________________________________________ 
 And there's nothing in the world                  that can cure the...
e|--------------------------------|--------------------------------|
B|--------------------------------|--------------------------------|
G|-7---7---7---7---7---7---7---7--|-7---7---7---7---7---7---7---7--|
D|-7---7---7---7---7---7---7---7--|-7---7---7---7---7---7---7---7--|
A|-5---5---5---5---5---5---5---5--|-5---5---5---5---5---5---5---5--|
E|--------------------------------|--------------------------------|


___A_______________________________________________________________ 
...fever...( etc )
e|--------------------------------|--------------------------------|
B|--------------------------------|--------------------------------|
G|--------------------------------|--------------------------------|
D|-7---7---7---7---7---7---7---7--|-7---7---7---7---7---7---7---7--|
A|-7---7---7---7---7---7---7---7--|-7---7---7---7---7---7---7---7--|
E|-5---5---5---5---5---5---5---5--|-5---5---5---5---5---5---5---5--|


Repeat last part until:


___D_______________________________________________________________ 

e|--------------------------------|--------------------------------|
B|--------------------------------|--------------------------------|
G|--------------------------------|--------------------------------|
D|-7---7---9---7---7---7---9---7--|-7---7---9---7---10--7---9---7--|
A|-5---5---5---5---5---5---5---5--|-5---5---5---5---5---5---5---5--|
E|--------------------------------|--------------------------------|


___A_______________________________________________________________ 

e|--------------------------------|--------------------------------|
B|--------------------------------|--------------------------------|
G|--------------------------------|--------------------------------|
D|--------------------------------|--------------------------------|
A|-7---7---9---7---7---7---9---7--|-7---7---9---7---10--7---9---7--|
E|-5---5---5---5---5---5---5---5--|-5---5---5---5---5---5---5---5--|


___D_______________________________________________________________ 

e|-2------------------------------|--------------------------------|
B|-3------------------------------|--------------------------------|
G|-2------------------------------|--------------------------------|
D|-0------------------------------|--------------------------------|
A|--------------------------------|--------------------------------|
E|--------------------------------|--------------------------------|



Lyrics:

I love you with a fever         
I love you like a fire
Everything is burning 
With the flames of my desire

Flames...
Love in flames
I'm in flames 
Love in flames

I love like the movies
I love you like the TV
I love you when you're classy
And I love you when you're sleazy

Flames...
Love in flames
I'm in flames
Love in flames

Only the ash remains...    
Everythings up in flames...

I wanna be your camera 
I wanna be your dancer
I wanna be your question
And I wanna be your answer

Flames...
Love in flames
I'm in flames
Love in flames

I wanna be your mystic
I wanna be your gypsy
I wanna be your target 
Anytime you wanna hit me

Flames...
Love in flames
I'm in flames
Love in flames

Only the ash remains...    
Everythings up in flames...

And there's nothing in the world
That can cure the fever...
There's nothing I can do 
To put out the fire...
There's nothing I can take 
That can take me higher...
'Cause you're my flame
You're my hot desire...

Oh, heartburn
Oh, heartburn
Tap to rate this tab
# A B C D E F G H I J K L M N O P Q R S T U V W X Y Z