Guitaretab - guitar tabs
Song name
# A B C D E F G H I J K L M N O P Q R S T U V W X Y Z

Be Bop Deluxe - Youre The Gold At The End Of My Rainbow tab

Highlighted       Show chord diagrams
-------------------------------------------------------------------------------
	You're The Gold At The End Of My Rainbow - Be Bop Deluxe
-------------------------------------------------------------------------------

Tabbed by: axe victim

Email: leave a message on my  Ultimate Guitar  profile.

Another tune from the  Modern Music  album. Hope you like it.


Tuning: EADGBe

| D/C# chord/bass note
| h  hammer-on
| p  pull-off
| x  Mute note


Intro: ( strum acoustic guitar ad-lib throughout... )


___D_______________A________________G______________________________

e|-2---------------0--------------|-3------------------------------|
B|-3---------------2--------------|-3------------------------------|
G|-2---------------2--------------|-0------------------------------|
D|-0---------------2--------------|-0--------------------------0---|
A|-----------------0--------------|-2----------------------0h2---2-|
E|--------------------------------|-3--------------------3---------|


Repeat a few times.


Verse:


___A_______________G_______Bm_______D______________________________
      The  cup  of sorrow  over  -  flows
e|-0---------------3-------2------|-2------------------------------|
B|-2---------------3-------3------|-3------------------------------|
G|-2---------------0-------4------|-2------------------------------|
D|-2---------------0-------4------|-0------------------------------|
A|-0---------------x-------2------|--------------------------------|
E|-----------------3--------------|--------------------------------|



___A_______________G_______Bm_______D_______________D/C#___________
          Nothing shows no nothing  glows    but my soul is all at...
e|-0---------------3-------2------|-2---------------2--------------|
B|-2---------------3-------3------|-3---------------3--------------|
G|-2---------------0-------4------|-2---------------2--------------|
D|-2---------------0-------4------|-0---------------x--------------|
A|-0---------------x-------2------|-----------------4--------------|
E|-----------------3--------------|--------------------------------|



___Gmaj7/B__________________________D______________________________ 
...sea...                          ...the night has had its way with...
e|-2------------------------------|-2---------------2--------------|
B|-3------------------------------|-3---------------3--------------|
G|-0------------------------------|-2---------------2--------------|
D|-0--------------------------0---|-0---------------x--------------|
A|-2----------------------0h2---2-|-----------------4--------------|
E|-x--------------------3---------|--------------------------------|


___Gmaj7/B________________________
...me...
e|-2------------------------------|
B|-3------------------------------|
G|-0------------------------------|
D|-0------------------------------|
A|-2------------------------------|
E|-x------------------------------|


Repeat verse.


Chorus: " 'cause you're the...

[ Tab from: http://www.guitaretab.com/b/be-bop-deluxe/115268.html ]
___G_______________A________________D_______D/C#____Gmaj7/B________ 
...gold    at the end        of my rain     -      bow         the...
e|-3---------------0--------------|-2-------2-------2--------------|
B|-3---------------2--------------|-3-------3-------3-------2------|
G|-0---------------2--------------|-2-------2-------0-------2------|
D|-0---------------2--------------|-0-------x-------x-------2------|
A|-2---------------0--------------|---------4-------2-------0------|
E|-3------------------------------|--------------------------------|




___G_______________A________________D_________________F_______G____ 
...ghost  with the silver           smile                  you're the...
e|-3---------------0--------------|-2-----------------5-5-5---7-7--|
B|-3---------------2--------------|-3-----------------6-6-6---8-8--|
G|-0---------------2--------------|-2-----------------5-5-5---7-7--|
D|-0---------------2--------------|-0-----------------0-0-0---0-0--|
A|-2---------------0--------------|--------------------------------|
E|-3------------------------------|--------------------------------|


___G_______________A________________D_______D/C#____Gmaj7/B________ 
...gold     at the end        of my rain     -      bow...
e|-3---------------0--------------|-2-------2-------2--------------|
B|-3---------------2--------------|-3-------3-------3--------------|
G|-0---------------2--------------|-2-------2-------0--------------|
D|-0---------------2--------------|-0-------x-------x--------------|
A|-2---------------0--------------|---------4-------2--------------|
E|-3------------------------------|--------------------------------|



___Em______________A________________Em______________A______________ 
      oh won't you stay with me      please won't you stay with me...
e|-0---------------0--------------|-0---------------0--------------|
B|-0---------------2--------------|-0---------------2--------------|
G|-0---------------2--------------|-0---------------2--------------|
D|-2---------------2--------------|-2---------------2--------------|
A|-2---------------0--------------|-2---------------0--------------|
E|-0------------------------------|-0------------------------------|


___Em______________G_______A________D______________________________ 
      oh won't you stay with me   a while?     
e|-0---------------3-------0------|-2------------------------------|
B|-0---------------3-------2------|-3------------------------------|
G|-0---------------0-------2------|-2------------------------------|
D|-2---------------0-------2------|-0------------------------------|
A|-2---------------2-------0------|--------------------------------|
E|-0---------------3--------------|--------------------------------|



Final part ( play twice... )


___G/D_____________Dmaj7____________Em/D____________D______________ 
( guitar solo... )
e|-7-------7-------5-------5------|-3-------3-------2--------------|
B|-8-------8-------7-------7------|-5-------5-------3--------------|
G|-7-------7-------6-------6------|-4-------4-------2--------------|
D|-0-------0-------0-------0------|-0-------0-------0--------------|
A|--------------------------------|--------------------------------|
E|--------------------------------|--------------------------------|


Repeat verse, chorus and final part. 




Related for Youre The Gold At The End Of My Rainbow tab
Advertisement will be closed in 10 seconds