Song name
# A B C D E F G H I J K L M N O P Q R S T U V W X Y Z

Be Bop Deluxe - Dance Of The Uncle Sam Humanoids tab

-------------------------------------------------------------------------------
Dance Of The Uncle Sam Humanoids - Be Bop Deluxe
-------------------------------------------------------------------------------

Tabbed by: axe victim

Email: Leave a message on my  ‘Ultimate Guitar’  profile or comment 
here and I’ll get back to you.

Amazing instrumental track from the  Modern Music  album.  There are 
a lot of guitar parts on this track, and it was difficult to tab, but
I think all the information you need is there.


Tuning: EADGBe

| /  slide up
| \  slide down
| h  hammer-on
| p  pull-off
| ~  vibrato or sustain
| +  harmonic
| x  Mute note
| b  bend
| r  relax bend
| pb pre-bend
| ^  quarter tone bend




Riff 1:   ( E7#9 = x7678x   or,  0x678x )


___E7#9_(x7678x)__________________________________________________

e|----------------------------------------------------------------|
B|----------------------------------------------------------------|
G|----------------------------------------------------------------|
D|-----------------5~~~----------------------------5~~~-----------|
A|---------5--h7-----------7---5-------7-------7-----------7------|
E|-5--h7----------------------------------------------------------|

 | 1   -   &   -   2   -   &   -   3   -   &   -   4   -   &   -  |


___E7#9____________________________

e|----------------------------------------------------------------|
B|----------------------------------------------------------------|
G|----------------------------------------------------------------|
D|-----------------5~~~-------------------------------------------|
A|---------5--h7-----------7---5----------------------------------|
E|-5--h7----------------------------------------------------------|



Repeat riff 1.


Guitar solo 1:



___Dmaj7/E_(057675)_______________________________________________

e|-9~~~~~~~~~~~~~~~~~~~~~~~~~~~~~~~~~~~~~~~~~~~~~~~~--------------|
B|----------------------------------------------------------------|
G|----------------------------------------------------------------|
D|----------------------------------------------------------------|
A|----------------------------------------------------------------|
E|----------------------------------------------------------------|



___Dmaj7/E_(057675)_______________________________________________

e|-9-----------10-10-----/12-------9-----------10---------12------|
B|----------------------------------------------------------------|
G|----------------------------------------------------------------|
D|----------------------------------------------------------------|
A|----------------------------------------------------------------|
E|----------------------------------------------------------------|

 | 1   -   &   -   2   -   &   -   3   -   &   -   4   -   &   -  |

___C#m7/E_(046454)________________________________________________

e|-9~~~~~~~~~~~~~-------------------------------------------------|
B|-----------------12--10--9--------------------------------------|
G|----------------------------11---9~~~~~~~~~~~~~~~~~~~~~~~\------|
D|----------------------------------------------------------------|
A|----------------------------------------------------------------|
E|----------------------------------------------------------------|
 | 1   -   &   -   2   -   &   -   3   -   &   -   4   -   &   -  |



___C#m7/E_(046454)________________________________________________

e|----------------------------------------------------------------|
B|----------------------------------------------------------------|
G|-------------9---11-h13-p11-p9----------------------------------|
D|/9-------11----------------------11-p9--p7----------------------|
A|---------------------------------------------9--p7--------------|
E|----------------------------------------------------------------|



___Dmaj7/E_(057675)_______________________________________________

e|-9-----------10----------12------9~~~~~~~~~~~~~~----------------|
B|-------------------------------------------------12~~~~~~~~~~~~-|
G|----------------------------------------------------------------|
D|----------------------------------------------------------------|
A|----------------------------------------------------------------|
E|----------------------------------------------------------------|



___Dmaj7/E_(057675)_______________________________________________

e|---------9---10--12----9---10----12~~~~~~10~~~~~~9h10p9---------|
B|---------------------------------------------------------12-----|
G|----------------------------------------------------------------|
D|----------------------------------------------------------------|
A|----------------------------------------------------------------|
E|----------------------------------------------------------------|



___C#m7/E_(046454)________________________________________________

e|----------------------------------------------------------------|
B|-10~~~~~~~~~~~~~~9~~~~~~~~~~~~~~~~~~~~~~~~~~~~~~~~~~~~~~~~~~~~~~|
G|----------------------------------------------------------------|
D|----------------------------------------------------------------|
A|----------------------------------------------------------------|
E|----------------------------------------------------------------|


___C#m7/E_(046454)________________________________________________

e|----------------------------------------------------------------|
B|(9)~~~~~~~~~~~~~~~~~~~~~~~~~~~~~~~~~~~~~~~~~~~~~~~--------------|
G|----------------------------------------------------------------|
D|----------------------------------------------------------------|
A|----------------------------------------------------------------|
E|----------------------------------------------------------------|




___Cmaj7_(x35453)_________________________________________________

e|----------------------------------------------------------------|
B|-12~~~~~~~~~~~~~~~~~~~~------12--13~~~~~~~~~~~~~~~~~~~~--12--13-|
G|-12~~~~~~~~~~~~~~~~~~~~--14-------------------------------------|
D|----------------------------------------------------------------|
A|----------------------------------------------------------------|
E|----------------------------------------------------------------|

 | 1   -   &   -   2   -   &   -   3   -   &   -   4   -   &   -  |


___Cmaj7_(x35453)_________________________________________________

e|-----------------12----------12--13------12--13--15~~~~~~~~~~~~-|
B|-15------13--15----------15-------------------------------------|
G|----------------------------------------------------------------|
D|----------------------------------------------------------------|
A|----------------------------------------------------------------|
E|----------------------------------------------------------------|


___Bbmaj7_(6x8765)________________________________________________

e|-13------12h13p12------------------------------------12-h13-h15-|
B|-----------------15~~~~~~~~~~~~~~~~~~~~~~--------15-------------|
G|----------------------------------------------------------------|
D|----------------------------------------------------------------|
A|----------------------------------------------------------------|
E|----------------------------------------------------------------|



___Bbmaj7_(6x8765)________________________________________________

e|-13p12-------12-------------------------------------------------|
B|---------15------15~~~~~~~~~~~~~~~~~~~~~~~~~~~~~~--------10--10-|
G|----------------------------------------------------------------|
D|----------------------------------------------------------------|
A|----------------------------------------------------------------|
E|----------------------------------------------------------------|



___Amaj7_(5x7654)_________________________________________________

e|----------------------------------------------------------------|
B|-10------------------------------------------------------10--10-|
G|-----9---9---9---9----------------------------------------------|
D|---------------------7---7---7---7------------------------------|
A|-------------------------------------7---7---7---7--------------|
E|----------------------------------------------------------------|

 | 1   -   &   -   2   -   &   -   3   -   &   -   4   -   &   -  |


___Amaj7_(5x7654)_________________________________________________

e|----------------------------------------------------------------|
B|-10-------------------------------------------------------------|
G|-----9---9---9---9----------------------------------------------|
D|---------------------7---7---7---7------------------------------|
A|-------------------------------------7---7---7---7\-------------|
E|----------------------------------------------------------------|



Riff 1: 

There are three guitars on the original album version.  The first 
guitar plays riff 1 at the 5th fret, the second guitar plays it an 
octave higher at the 12th fret.  When Bill played this live he 
alternated between the two.  There is also a clean guitar playing 
some funky jazz chords which I have also shown.



___E7#9_(x7678x)__________________________________________________

e|----------------------------------------------------------------|
B|----------------------------------------------------------------|
G|----------------------------------------------------------------|
D|-----------------5~~~----------------------------5~~~-----------|
A|---------5--h7-----------7---5-------7-------7-----------7------|
E|-5--h7----------------------------------------------------------|



___E7#9________________________________E7#9_______________________

e|-------------------------------------12--x---12--x---12--x------|
B|-------------------------------------12--x---12--x---12--x------|
G|-------------------------------------12--x---12--x---12--x------|
D|-----------------5~~~----------------12--x---12--x---12--x------|
A|---------5--h7-----------7---5-------11--x---11--x---11--x------|
E|-5--h7-------------------------------12--x---12--x---12--x------|




___E7#9___________________________________________________________

e|----------------------------------------------------------------|
B|----------------------------------------------------------------|
G|-----------------12~~~---------------------------12~~~----------|
D|---------12-h14----------14--12------14------14----------14-----|
A|-12-h14---------------------------------------------------------|
E|----------------------------------------------------------------|



___E7#9____________________________________Eb9____________________

e|-----------------------------------------6----------------------|
B|-----------------------------------------6----------------------|
G|-----------------12~~~-------------------6----------------------|
D|---------12-h14----------14--12----------5----------------------|
A|-12-h14----------------------------------6----------------------|
E|----------------------------------------------------------------|



___E7#9___________________________________________________________

e|----------------------------------------------------------------|
B|----------------------------------------------------------------|
G|----------------------------------------------------------------|
D|-----------------5~~~----------------------------5~~~-----------|
A|---------5--h7-----------7---5-------7-------7-----------7------|
E|-5--h7----------------------------------------------------------|



___E7#9________________________________E9______________E9_________

e|-------------------------------------7---------------7----------|
B|-------------------------------------7---------------7----------|
G|-------------------------------------7---------------7----------|
D|-----------------5~~~----------------6---------------6----------|
A|---------5--h7-----------7---5-------7---------------7----------|
E|-5--h7----------------------------------------------------------|



___E7#9___________________________________________________________

e|----------------------------------------------------------------|
B|----------------------------------------------------------------|
G|----------------------------------------------------------------|
D|-----------------5~~~----------------------------5~~~-----------|
A|---------5--h7-----------7---5-------7-------7-----------7------|
E|-5--h7----------------------------------------------------------|



___E7#9_______________________-________E9_________________________

e|-------------------------------------7\-------------------------|
B|-------------------------------------7\-------------------------|
G|-------------------------------------7\-------------------------|
D|-----------------5~~~----------------6\-------------------------|
A|---------5--h7-----------7---5-------7\-------------------------|
E|-5--h7----------------------------------------------------------|



Guitar solo 2:



___Dmaj7/E_(057675)_______________________________________________

e|-9~~~~~~~~~~~~~~~~~~~~~~~~~~~~~~~~~~~~~~~~~~~~~~~~\-------------|
B|----------------------------------------------------------------|
G|----------------------------------------------------------------|
D|----------------------------------------------------------------|
A|----------------------------------------------------------------|
E|----------------------------------------------------------------|



___Dmaj7/E_(057675)_______________________________________________

e|-9-----------10-10-----/12-------9-----------10---------12------|
B|----------------------------------------------------------------|
G|----------------------------------------------------------------|
D|----------------------------------------------------------------|
A|----------------------------------------------------------------|
E|----------------------------------------------------------------|



___C#m7/E_________________________________________________________

e|-9--------------------------------------------------------------|
B|-----------------12--10--9--------------------------------------|
G|----------------------------11---9~~~~~~~~~~~~~~~~~~~~~~~\------|
D|----------------------------------------------------------------|
A|----------------------------------------------------------------|
E|----------------------------------------------------------------|



___C#m7/E_________________________________________________________

e|----------------------------------------------------------------|
B|----------------------------------------------------------------|
G|-------------9---11-h13-p11-p9----------------------------------|
D|/9-------11----------------------11-p9--p7----------------------|
A|---------------------------------------------9--p7--------------|
E|----------------------------------------------------------------|



___Dmaj7/E________________________________________________________

e|-9---------9h10---------/12------9~~~~~~~~~~~~~~----------------|
B|-------------------------------------------------12~~~~~~~~~~~~-|
G|----------------------------------------------------------------|
D|----------------------------------------------------------------|
A|----------------------------------------------------------------|
E|----------------------------------------------------------------|
 | 1   -   &   -   2   -   &   -   3   -   &   -   4   -   &   -  |


___Dmaj7/E________________________________________________________

e|---------9---10-/12----10---12--/14--12--14~~~~~~~~~~~~~~~14/17-|
B|----------------------------------------------------------------|
G|----------------------------------------------------------------|
D|----------------------------------------------------------------|
A|----------------------------------------------------------------|
E|----------------------------------------------------------------|
 | 1   -   &   -   2   -   &   -   3   -   &   -   4   -   &   -  |


___C#m7/E_________________________________________________________

e|-16~~~~~~----14-------------------------------------------------|
B|---------17----------17--15--14---------------------------------|
G|---------------------------------16~~~~~~~~~~~~~~~~~~~~~~~~~~~~-|
D|----------------------------------------------------------------|
A|----------------------------------------------------------------|
E|----------------------------------------------------------------|



___C#m7/E_________________________________________________________

e|-17b19~~~~~~r17b19~~~~~~r17b19~~~~~~r17b19\---------------------|
B|----------------------------------------------------------------|
G|----------------------------------------------------------------|
D|----------------------------------------------------------------|
A|----------------------------------------------------------------|
E|----------------------------------------------------------------|

 | 1   -   &   -   2   -   &   -   3   -   &   -   4   -   &   -  |


___Cmaj7__________________________________________________________

e|----------------------------------------------------------------|
B|-12~~~~~~~~~~~~~~~~~~~~------12--13~~~~~~~~~~~~~~~~~~~~--12--13-|
G|-12~~~~~~~~~~~~~~~~~~~~--14-------------------------------------|
D|----------------------------------------------------------------|
A|----------------------------------------------------------------|
E|----------------------------------------------------------------|



___Cmaj7__________________________________________________________

e|-----------------12----------12--13------12--13--15~~~~~~~~~~~~-|
B|-15------13--15----------15-------------------------------------|
G|----------------------------------------------------------------|
D|----------------------------------------------------------------|
A|----------------------------------------------------------------|
E|----------------------------------------------------------------|



___Bbmaj7_________________________________________________________

e|-13------12h13p12------------------------------------12-h13-h15-|
B|-----------------15~~~~~~~~~~~~~~~~~~~~~~--------15-------------|
G|----------------------------------------------------------------|
D|----------------------------------------------------------------|
A|----------------------------------------------------------------|
E|----------------------------------------------------------------|



___Bbmaj7_________________________________________________________

e|-13p12-------12-------------------------------------------------|
B|---------15------15~~~~~~~~~~~~~~~~~~~~~~~~~~~~~~--------10--10-|
G|----------------------------------------------------------------|
D|----------------------------------------------------------------|
A|----------------------------------------------------------------|
E|----------------------------------------------------------------|



___Amaj7__________________________________________________________

e|----------------------------------------------------------------|
B|-10------------------------------------------------------10--10-|
G|-----9---9---9---9\---------------------------------------------|
D|---------------------7---7---7---7------------------------------|
A|-------------------------------------7---7---7---7--------------|
E|----------------------------------------------------------------|

 | 1   -   &   -   2   -   &   -   3   -   &   -   4   -   &   -  |


___Amaj7__________________________________________________________

e|----------------------------------------------------------------|
B|-10-------------------------------------------------------------|
G|-----9---9---9---9\---------------------------------------------|
D|---------------------7---7---7---7------------------------------|
A|-------------------------------------7---7---7---7\-------------|
E|----------------------------------------------------------------|



Riff 1:


___E7#9_(x7678x)__________________________________________________

e|----------------------------------------------------------------|
B|----------------------------------------------------------------|
G|----------------------------------------------------------------|
D|-----------------5~~~----------------------------5~~~-----------|
A|---------5--h7-----------7---5-------7------h7-----------7------|
E|-5--h7----------------------------------------------------------|

 | 1   -   &   -   2   -   &   -   3   -   &   -   4   -   &   -  |


___E7#9________________________

e|----------------------------------------------------------------|
B|----------------------------------------------------------------|
G|----------------------------------------------------------------|
D|-----------------5~~~-------------------------------------------|
A|---------5--h7-----------7---5----------------------------------|
E|-5--h7----------------------------------------------------------|


___E7#9___________________________________________________________

e|----------------------------------------------------------------|
B|----------------------------------------------------------------|
G|-----------------12~~~---------------------------12~~~----------|
D|---------12-h14----------14--12------14------14----------14-----|
A|-12-h14---------------------------------------------------------|
E|----------------------------------------------------------------|



___E7#9________________________

e|----------------------------------------------------------------|
B|----------------------------------------------------------------|
G|-----------------12~~~------------------------------------------|
D|---------12-h14----------14--12---------------------------------|
A|-12-h14---------------------------------------------------------|
E|----------------------------------------------------------------|


___E7#9___________________________________________________________

e|----------------------------------------------------------------|
B|----------------------------------------------------------------|
G|----------------------------------------------------------------|
D|-----------------5~~~----------------------------5~~~-----------|
A|---------5--h7-----------7---5-------7-------7-----------7------|
E|-5--h7----------------------------------------------------------|



___E7#9________________________

e|----------------------------------------------------------------|
B|----------------------------------------(15~~~~~~~~~~~~~~~~~~~)-|
G|----------------------------------------(14b16~~~~~~~~~~~~~~~~)-|
D|-----------------5~~~-------------------------------------------|
A|---------5--h7-----------7---5----------------------------------|
E|-5--h7----------------------------------------------------------|


___E7#9___________________________________________________________

e|----------------------------------------------------------------|
B|----------------------------------------------------------------|
G|-----------------12~~~---------------------------12~~~----------|
D|---------12-h14----------14--12------14------14----------14-----|
A|-12-h14---------------------------------------------------------|
E|----------------------------------------------------------------|



___E7#9________________________

e|----------------------------------------------------------------|
B|----------------------------------------------------------------|
G|-----------------12~~~------------------------------------------|
D|---------12-h14----------14--12---------------------------------|
A|-12-h14---------------------------------------------------------|
E|-------------------------------------------------15\------------|





Guitar solo 3:


___G_(32033)______________________________________________________

e|----------------------------------------------------------------|
B|----------------------------------------------------------------|
G|----------------------------------------------------------------|
D|-------------------------------------------------5-h7-p5--------|
A|-------------------------5~~~~~~~~~~~----5--h7-----------7------|
E|\3--------------/7----------------------------------------------|

 | 1   -   &   -   2   -   &   -   3   -   &   -   4   -   &   -  |


___D_(xx0232)_____________________________________________________

e|----------------------------------------------------------------|
B|-----------------------------------------8-------7-h8-p7--------|
G|-----------------7-------9~~~~~~~------------------------9--h11-|
D|/9--------------------------------------------------------------|
A|----------------------------------------------------------------|
E|----------------------------------------------------------------|



___G_(320033)______________________C_(x32010)_____________________

e|----------------------------------------------------------------|
B|----------------------------------------------------------------|
G|-7--h9-------7--\5-------5--\4-------4--------------------------|
D|---------9-----------5-----------5-------5~~b7~~-5~~~-----------|
A|-----------------------------------------------------7--p5--p3--|
E|----------------------------------------------------------------|



___G_(320033)______________________

e|----------------------------------------------------------------|
B|----------------------------------------------------------------|
G|----------------------------------------------------------17b19~|
D|----------------------------------------------------------------|
A|\2--h3---2--h3---2--h3---2h3p2p0--------------------------------|
E|---------------------------------3------------------------------|



___G______________________________________________________________

e|-----15---------------------------------------------------------|
B|-15------18------15----------17---------------------------------|
G|~------------17^-15--15-h16~~~~pb16~r14-b16~r14~~----14---------|
D|-------------------------------------------------17------17-----|
A|----------------------------------------------------------------|
E|----------------------------------------------------------------|


___D______________________________________________________________

e|-------------------------------------------------15---18---17---|
B|-----------------------------------------15h17h18---------------|
G|---------------------14-15p14----14h16h18-----------------------|
D|pb15r14----14-h15h17----------17--------------------------------|
A|--------17------------------------------------------------------|
E|----------------------------------------------------------------|


___G_______________________________C______________________________

e|-15----15----------------15-------------------------------------|
B|----17---17b19~~~~~~~~~~~----18-p15------15---------17----------|
G|-------------------------------------17--15--15-h16~~~-14b15r14-|
D|----------------------------------------------------------------|
A|----------------------------------------------------------------|
E|----------------------------------------------------------------|


___G_______________________________

e|----------------------------------------------------------------|
B|----------------------------------------------------------------|
G|pb15r14------14-------------------------------------------------|
D|---------17------17--15--14-\12-\9------------------------------|
A|----------------------------------------------------------------|
E|----------------------------------------------------------------|

 | 1   -   &   -   2   -   &   -   3   -   &   -   4   -   &   -  |


Final part:


___G______________________________________________________________

e|----------------------------------------------------------------|
B|---------0-----------0------------------------------------------|
G|-----0-----------0---------------0-----------0------------------|
D|-4-----------5---------------0-----------0----------------------|
A|-------------------------4-----------5---------------0--h2------|
E|-------------------------------------------------3-----------3--|



___C___________G/B_____________________Am7__________

e|-------------------------------------3---3---3---3--------------|
B|-------------------------------------1---1---1---1--------------|
G|---------0-----------0---------------2---2---2---2--------------|
D|-----2-----------0-------------------2---2---2---2--------------|
A|-3-----------2-----------0-----------0---0---0---0--------------|
E|----------------------------------------------------------------|


...a few times and then:


___G______________________________________________________________

e|----------------------------------------------------------------|
B|---------0-----------0------------------------------------------|
G|-----0-----------0---------------0-----------0------------------|
D|-4-----------5---------------0-----------0----------------------|
A|-------------------------4-----------5---------------0--h2------|
E|-------------------------------------------------3-----------3--|



___C___________G/B_________Am__________G__________________________

e|----------------------------------------------------------------|
B|----------------------------------------------------------------|
G|---------0-----------0-----------2-------------------0-------0--|
D|-----2-----------0-----------2---------------0-------0-------0--|
A|-3-----------2-----------0---------------0-----------x-------x--|
E|-------------------------------------3-----------1-------2------|



___G______________________________________________________________

e|---------3---3-------3---3---------------3---3-------3---3------|
B|---------3---3-------3---3---------------3---3-------3---3------|
G|---------0---0-------0---0---------------0---0-------0---0------|
D|---------0---0-------0---0---------------0---0-------0---0------|
A|---------x---x-------x---x---------------x---x-------x---x------|
E|-2--h3-------3-----------3-------2--h3-------3-----------3------|



___G______________________________________________________________

e|---------3---3-------3---3-------3------------------------------|
B|---------3---3-------3---3-------3------------------------------|
G|---------0---0-------0---0-------0------------------------------|
D|---------0---0-------0---0-------0------------------------------|
A|---------x---x-------x---x-------x------------------------------|
E|-2--h3-------3-----------3-------3------------------------------|



___G______________________________________________________________

e|----------------------------------------------------------------|
B|---------0-----------0------------------------------------------|
G|-----0-----------0---------------0-----------0------------------|
D|-4-----------5---------------0-----------0----------------------|
A|-------------------------4-----------5---------------0--h2------|
E|-------------------------------------------------3-----------3--|



___C___________G/B_________Am__________G__________________________

e|----------------------------------------------------------------|
B|----------------------------------------------------------------|
G|---------0-----------0-----------2-------------------0-------0--|
D|-----2-----------0-----------2---------------0-------0-------0--|
A|-3-----------2-----------0---------------0-----------x-------x--|
E|-------------------------------------3-----------1-------2------|



___G_______________________________________________________________

e|-3--------------------------------------------------------------|
B|-3--------------------------------------------------------------|
G|-0--------------------------------------------------------------|
D|-0--------------------------------------------------------------|
A|-x--------------------------------------------------------------|
E|-3--------------------------------------------------------------|




Segues into Modern Music Reprise...



Music by Bill Nelson.
Tap to rate this tab
# A B C D E F G H I J K L M N O P Q R S T U V W X Y Z