Song name
# A B C D E F G H I J K L M N O P Q R S T U V W X Y Z

Be Bop Deluxe - Music In Dreamland tab

-------------------------------------------------------------------------------
Music In Dreamland - Be Bop Deluxe
-------------------------------------------------------------------------------

Tabbed by: axe victim

Email: ax3v1ct1m@gmail.com

Leave a message on my  ‘Ultimate Guitar’  profile or comment
here and I’ll get back to you.

Tuning: EADGBe



| /  slide up
| \  slide down
| s  very rapid slide, sounds like one note
| h  hammer-on
| p  pull-off
| ~  vibrato or sustain
| +  harmonic
| x  Mute note
| b  bend
| r  relax bend
| pb pre-bend
| ^  quarter tone bend
| (x7678x) chord shape




Musical masterpiece from the Futurama album, in the Brass Band friendly key
of Db.  Hope you enjoy playing it as much as I enjoyed tabbing it!





Intro: strum chords ad lib


___________________________________________________________________________
                               ( melody... )
e|-------------------------------------------------------------------------|
B|-------------------------------------------------------------------------|
G|-------------------------------------------------------------------------|
D|-------------------------------------3-----------4-----------6-----------|
A|-------------------------------------------------------------------------|
E|-------------------------------------------------------------------------|


___Db_(x43121)_____________________________________________________________
                     ( rhythym chords in brackets... )
e|-------------------------------------------------------------------------|
B|-------------------------------------------------------------------------|
G|-------------------------------------------------------------------------|
D|-------------------------------------------------------------------------|
A|-4~~~~~~~~~~~~~~~~~~~~~~~~~~~~~~~~~~~~~~~~~~~~~~~~~~~~~------------------|
E|-------------------------------------------------------------------------|


___Db_(x43121)_____________________________________________________________

e|-------------------------------------------------------------------------|
B|-------------------------------------------------------------------------|
G|-------------------------------------------------------------------------|
D|-------------------------------------3-----------4-----------6-----------|
A|-------------------------------------------------------------------------|
E|-------------------------------------------------------------------------|


___Db_(x65343)_____________________________________________________________

e|-------------------------------------------------------------------------|
B|-------------------------------------------------------------------------|
G|-------------------------------------------------------------------------|
D|-------------------------------------------------------------------------|
A|-1~~~~~~~~~~~~~~~~~~~~~~~~~~~~~~~~~~~~~~~~~~~~~~~~~~~~~------------------|
E|-------------------------------------------------------------------------|


___Eb_(x65434)_____________________________________________________________

e|-------------------------------------------------------------------------|
B|-------------------------------------------------------------------------|
G|-------------------------------------------------------------------------|
D|-------------------------------------3-----------4-----------6-----------|
A|-------------------------------------------------------------------------|
E|-------------------------------------------------------------------------|


___Gb_(244322)_____________________________________________________________
( guitar one... )
e|-------------------------------------------------------------------------|
B|-------------------------------------------------------------------------|
G|-------------------------------------------------------------------------|
D|-------------------------------------------------------------------------|
A|-------------------------------------------------------------------------|
E|-2~~~~~~~~~~~~~~~~~~~~~~~~~~~~~~~~~~~~~~~~~~~~~~~------------------------|


___Gb_(244322)_____________________________________________________________

e|-------------------------------------------------------------------------|
B|-------------------------------------------------------------------------|
G|-------------------------------------------------------------------------|
D|-------------------------------------------------------------4-----------|
A|-------------------------------------------------------------------------|
E|-------------------------------------2-----------6-----------------------|


___Db_(x43121)_____________________________________________________________

e|-------------------------------------------------------------------------|
B|-------------------------------------------------------------------------|
G|-------------------------------------------------------------------------|
D|-3~~~~~~~~~~~~~~~~~~~~~~~~~~~~~~~~~~~~~~~~~~~~~~~------------------------|
A|-------------------------------------------------------------------------|
E|-------------------------------------------------------------------------|






Intro, Guitar solo:


If you are a beginner Look out for some help with finger position  where you
see this symbol - @

t = thumb ( like, duh )
i = index ( finger you point with )
m = middle ( you shouldn't point with that one ;-) )
r = ring finger ( wedding ring, natch )
p = pinky ( little finger )

You can use different fingers if you want, of course!

Rhythm chords in brackets.



___Db_(x43121)_____________________________________________________________

e|-------6-----------------------------------------------------------------|
B|-6~~---------6-----9-----------6-----------------------------------------|
G|-8b10--------------------8-----------6----h8-----------6-----------------|
D|-------------------------------------------------8-----------6-----8-----|
A|-------------------------------------------------------------------------|
E|-------------------------------------------------------------------------|

 | 1  -  2  -  3  -  1  -  2  -  3  -  1  -  2  -  3  -  1  -  2  -  3  -  |


___Db_(x43121)_____________________________________________________________

e|---------------------------------------------------------------------------|
B|---------------------------------------------------------------------------|
G|-------------------------------------------------------------------8^~~~~~-|
D|-6-------------------------------------------------------------------------|
A|-------8-----6-----4-----6-----------6~~~~~~~~~~~~~~~~~--------------------|
E|-------------------------------8-------------------------------------------|



___Eb_(x65343)_____________________________________________________________

e|-------------6-----------------6-----------------------------------------|
B|-------6-----------6-----9-----------6-----------------------------------|
G|b10----------------------------------------6----h8-----------6-----------|
D|-------------------------------------------------------8-----------6-----|
A|-------------------------------------------------------------------------|
E|-------------------------------------------------------------------------|
@  m     i     i     i     r     i     i     i     r     m     i     i



___Eb_(x65343)_____________________________________________________________
          ( s = slur: very rapid slide, sounds like one note )
e|-------------------------------------------------------------------------|
B|-------------------------------------------------------------------------|
G|-------------------------------------------------------------------------|
D|-8-----6-----------------------------------------------------------------|
A|------------8s6----4----h6-----------4~~~~~~~~~~~~~~~~~------------------|
E|-------------------------------6-----------------------------------------|
@  r     i    r      i     r     m     i~~~~~~~~~~~~~~~~~



___Gb_(244322)_____________________________________________________________

e|-------------------------------------------------------------------------|
B|-------------------------------------------------------------------------|
G|-------------------------------------------------------------------------|
D|-------------------------------------11----13----15----11----13----15----|
A|-11----13----15----11----13----15----------------------------------------|
E|-------------------------------------------------------------------------|

 | 1  -  2  -  3  -  1  -  2  -  3  -  1  -  2  -  3  -  1  -  2  -  3  -  |



___Gb_(244322)_____________________________________________________________

e|-------------------------------------------------------------------------|
B|-------------------------------------13----14----16----13----14----16----|
G|-11----13----15----11----13----15----------------------------------------|
D|-------------------------------------------------------------------------|
A|-------------------------------------------------------------------------|
E|-------------------------------------------------------------------------|
@  i     m     p     i     m     p     i     m     p     i     m     p



___Db_(x43121)_____________________________________________________________

e|-13----------14---------/16----------------------14----------16----------|
B|-------------------------------------18----------------------------------|
G|-------------------------------------------------------------------------|
D|-------------------------------------------------------------------------|
A|-------------------------------------------------------------------------|
E|-------------------------------------------------------------------------|
@  i           m          /m           p           i           m


___Db_(x43121)_____________________________________________________________

e|-18\-------------------------------------------------------------------------|
B|-----------------------------------------------------------------------------|
G|--------------------------------------------------------------8^~~~~~~~~~~~~-|
D|-----------------------------------------------------------------------------|
A|-----------------------------------------------------------------------------|
E|-----------------------------------------------------------------------------|
@  p\


Section repeats, sightly different this time....




___Db_(x43121)_____________________________________________________________
00:18
e|-------------6-----------------------------------------------------------|
B|-------6-----------6-----9-----------6-----------------------------------|
G|b10----------------------------8-----------6----h8-----------6-----------|
D|-------------------------------------------------------8-----------6-----|
A|-------------------------------------------------------------------------|
E|-------------------------------------------------------------------------|

 | 1  -  2  -  3  -  1  -  2  -  3  -  1  -  2  -  3  -  1  -  2  -  3  -  |



___Db_(x43121)_____________________________________________________________

e|-------------------------------------------------------------------------|
B|-------------------------------------------------------------------------|
G|-------------------------------------------------------------------------|
D|-8-----6-----------------------------------------------------------------|
A|-------------8-p6-h8-----6-----4-----6-----4-----------4-----6----/8-----|
E|-------------------------------------------------6-----------------------|



___Eb_(x65343)_____________________________________________________________
0:21:45
e|-------------------------------------------------------------------------|
B|-------------------------------------------------------------------------|
G|-------------6-----------6-----8^----8^~~~~~~~~~p6-----8-----6-----------|
D|-6----h8-----------8-----------------------------------------------8-----|
A|-------------------------------------------------------------------------|
E|-------------------------------------------------------------------------|



___Eb_(x65343)_____________________________________________________________

e|-------------------6-----------------------------------------------------|
B|-------------6-h9--------6-----9-----------6-----9-----------6~~~--------|
G|-6-----8-h10-------------------------8-----------------8-----------------|
D|-------------------------------------------------------------------------|
A|-------------------------------------------------------------------------|
E|-------------------------------------------------------------------------|
@  i     m  p  i  r  i     i     r     m     i     r     m     i~~~



___Gb_(244322)_____________________________________________________________

e|-------------------------------------------------------------------------|
B|-------------------------------------------------------------------------|
G|-------------------------------------------------------------------------|
D|-------------------------------------11----13----15----11----13----15----|
A|-11----13----15----11----13----15----------------------------------------|
E|-------------------------------------------------------------------------|



___Gb_(244322)_____________________________________________________________

e|-------------------------------------------------------------------------|
B|-------------------------------------13----14----16----13----14----16----|
G|-11----13----15----11----13----15----------------------------------------|
D|-------------------------------------------------------------------------|
A|-------------------------------------------------------------------------|
E|-------------------------------------------------------------------------|



___Db_(x43121)_____________________________________________________________

e|-13----------14---------/16----------------------14----------16----------|
B|-------------------------------------18----------------------------------|
G|-------------------------------------------------------------------------|
D|-------------------------------------------------------------------------|
A|-------------------------------------------------------------------------|
E|-------------------------------------------------------------------------|



___Db_(x43121)_____________________________________________________________

e|-18\---------------------------------------------------------------------|
B|-------------------------------------------------------------------------|
G|-------------------------------------------------------------------------|
D|-------------------------------------------------------------------------|
A|-------------------------------------------------------------------------|
E|-------------------------------------------------------------------------|




Verse: Rhythym chords in brackets. Strum ad lib.



___Db_(x43121)_____________________________________________________________
 " Stan    -   ding  by          the   old               car... "


___Gb_(244322)_____________________________________________________________
 " sun   -  set      in          your  grey              eyes... "


___Db_(x43121)_____________________________________________________________
 " listening         to          the   bluebirds ... "


___Gb_(244322)_____________________________________________________________
 " praying           for         a sunrise... "


___Bbm_(688666)____________________________________________________________
                               " I     know        we'll       make... "


___Ab_(466544)_____________________________________________________________
 " Mus    -    ic          in          dream   -   land        to - ..."


___Gb_(244322)_____________________________________________________________
 " - night... "




Repeat verse.  Second time ends:  " ...waltzing in dreamland... "



___Gbsus4__________________________________________________________________
 " tonight... "
e|-------------------------------------------------------------------------|
B|-------------------------------------------------------------------------|
G|-------4-----4-----------4-----4-----------------------------------------|
D|-------4-----4-----------4-----4-----------------------------------------|
A|-------4-----4-----------4-----4-----------------------------------------|
E|-2-----------------2-----------------2~~~~~~~~~~~~~~~~~~~~~~~~~~~~~------|

 | 1  -  2  -  3  -  1  -  2  -  3  -  1  -  2  -  3  -  1  -  2  -  3  -  |




Insstrumental passage: ( Rhythym chords in brackets )


___Db_(x43121)_____________________________________________________________
01:10
e|-------------------------------------------------------------------------|
B|-------------------------------------------------------------------------|
G|-------------------------------------------------------------------------|
D|-------------------------------------------------------------4-----------|
A|-4~~~~~~~~~~~~~~~~~~~~~~~~~~~~~------4-----------3-----------------------|
E|-------------------------------------------------------------------------|

 | 1  -  2  -  3  -  1  -  2  -  3  -  1  -  2  -  3  -  1  -  2  -  3  -  |



___Db_(x43121)_____________________________________________________________

e|-------------------------------------------------------------------------|
B|-------------------------------------------------------------------------|
G|-------------------------------------------------------------------------|
D|-3~~~~~~~~~~~~~~~~~~~~~~~~~~~~~~~~~~~~~~~~~~~~~~~------------------------|
A|-------------------------------------------------------------------------|
E|-------------------------------------------------------------------------|


___Gb_(244322)_____________________________________________________________

e|-------------------------------------------------------------------------|
B|-------------------------------------------------------------------------|
G|-------------------------------------------------------------4-----------|
D|-4~~~~~~~~~~~~~~~~~~~~~~~~~~~~~------4-----------3-----------------------|
A|-------------------------------------------------------------------------|
E|-------------------------------------------------------------------------|



___Gb_(244322)_____________________________________________________________

e|-------------------------------------------------------------------------|
B|-------------------------------------------------------------------------|
G|-3~~~~~~~~~~~~~~~~~~~~~~~~~~~~~------------------------5-----------------|
D|-------------------------------------------------------------------------|
A|-------------------------------------------------------------------------|
E|-------------------------------------------------------------------------|



___Db_(x43121)_________________________C_(x32010)__________________________

e|-------------------------------------------------------------------------|
B|-------------------------------------------------------------------------|
G|--6~~~~~~~~~~~~~~~~~~~~~~~~~~~~------5~~~~~~~~~~~~~~~~~~~~~~~~~~~~~------|
D|-------------------------------------------------------------------------|
A|-------------------------------------------------------------------------|
E|-------------------------------------------------------------------------|



___Bbm(x13321)_________________________Ab_(466544)_________________________

e|-------------------------------------------------------------------------|
B|-------------------------------------------------------------------------|
G|-3-----------------------------------------------------------------------|
D|-------------------------------------6-----------------------------------|
A|-------------------------------------------------------------------------|
E|-------------------------------------------------------------------------|



___Gb_(244322)_________________________Fm_(133111)_________________________

e|-------------------------------------------------------------------------|
B|-------------------------------------------------------------------------|
G|-------------------------------------------------------------------------|
D|-4~~~~~~~~~~~~~~~~~~~~~~~~~~~~~------3~~~~~~~~~~~~~~~~~~~~~~~~~~~~~------|
A|-------------------------------------------------------------------------|
E|-------------------------------------------------------------------------|



___Eb_(x65343)_____________________________________________________________

e|-------------------------------------------------------------------------|
B|-------------------------------------------------------------------------|
G|-------------------------------------------------------------------------|
D|-------------------------------------------------------------------------|
A|-6~~~~~~~~~~~~~~~~~~~~~~~~~~~~~~~~~~~~~~~~~~~~~~~~~~~~~------------------|
E|-------------------------------------------------------------------------|



Continues...



___Eb_(x65343)_____________________________________________________________
01:25
e|-------------------------------------------------------------------------|
B|-------------------------------------------------------------------------|
G|-------------------------------------------------------------------------|
D|-------------------------------------------------------------6-----------|
A|-6~~~~~~~~~~~~~~~~~~~~~~~~~~~~~------6-----------5-----------------------|
E|-------------------------------------------------------------------------|



___Eb_(x65343)_____________________________________________________________

e|-------------------------------------------------------------------------|
B|-------------------------------------------------------------------------|
G|-------------------------------------------------------------------------|
D|-5~~~~~~~~~~~~~~~~~~~~~~~~~~~~~------------------------------------------|
A|-------------------------------------------------------------------------|
E|-------------------------------------------------------------------------|



___Ab_(466544)_____________________________________________________________

e|-------------------------------------------------------------------------|
B|-------------------------------------------------------------------------|
G|-------------------------------------------------------------6-----------|
D|-6~~~~~~~~~~~~~~~~~~~~~~~~~~~~~------6-----------5-----------------------|
A|-------------------------------------------------------------------------|
E|-------------------------------------------------------------------------|



___Ab_(466544)_______________________________________________________Bb_(688566)_

e|-------------------------------------------------------------------------|
B|-------------------------------------------------------------------------|
G|-5~~~~~~~~~~~~~~~~~~~~~~~~~~~~~~~~~~~~~~~~~~~~~~~------------------7-----|
D|-------------------------------------------------------------------------|
A|-------------------------------------------------------------------------|
E|-------------------------------------------------------------------------|





___Ebm_(x68876)________________________Db_(x4666x)_________________________(_last time!_)

e|-------------------------------------------------------------------------|------------|
B|-------------------------------------------------------------------------|------------|
G|-8~~~~~~~~~~~~~~~~~~~~~~~~~~~~~~~----6-----------------------------------|-8!---------|
D|-------------------------------------------------------------------------|------------|
A|-------------------------------------------------------------------------|------------|
E|-------------------------------------------------------------------------|------------|



Repeat last bar twice more then;



___Ebm_____________________________________________________________________
01:38
e|-6-----------------6-----------------6-----------------6-----------------|
B|-7-----------------7-----------------7-----------------7-----------------|
G|-8-----------------8-----------------8-----------------8-----------------|
D|-8-----------------8-----------------8-----------------8-----------------|
A|-6-----------------6-----------------6-----------------6-----------------|
E|-------------------------------------------------------------------------|



___Ebm_____________________________________________________________________
                 " I have    some      pictures... "
e|-6-----------------6-----------------6-----------------6-----------------|
B|-7-----------------7-----------------7-----------------7-----------------|
G|-8-----------------8-----------------8-----------------8-----------------|
D|-8-----------------8-----------------8-----------------8-----------------|
A|-6-----------------6-----------------6-----------------6-----------------|
E|-------------------------------------------------------------------------|


___Ebm_____________________________________________________________________
                               " I     paint    them     in     my... "
e|-6-----------------6-----------------6-----------------6-----------------|
B|-7-----------------7-----------------7-----------------7-----------------|
G|-8-----------------8-----------------8-----------------8-----------------|
D|-8-----------------8-----------------8-----------------8-----------------|
A|-6-----------------6-----------------6-----------------6-----------------|
E|-------------------------------------------------------------------------|


___Db________________Db/Ab_____________Db__________________________________
 " sleep..."
e|-------------------------------------------------------------------------|
B|-6-----6-----6-----6-----6-----6-----6-----------------------------------|
G|-6-----6-----6-----6-----6-----6-----6-----------------------------------|
D|-6-----6-----6-----6-----6-----6-----6-----------------------------------|
A|-4-----4-----4-----x-----x-----x-----4-----------------------------------|
E|-------------------4-----4-----4-----------------------------------------|

 | 1  -  2  -  3  -  1  -  2  -  3  -  1  -  2  -  3  -  1  -  2  -  3  -  |



___Ebm_(x68876)____________________________________________________________
             " They  make      me      laugh... "


___Ebm_(x68876)____________________________________________________________
                                 " sometimes     they    make  me... "



___Db________________Db/Ab_____________Db__________________________________
 " weep... "
e|-------------------------------------------------------------------------|
B|-6-----6-----6-----6-----6-----6-----6-----------------------------------|
G|-6-----6-----6-----6-----6-----6-----6-----------------------------------|
D|-6-----6-----6-----6-----6-----6-----6-----------------------------------|
A|-4-----4-----4-----x-----x-----x-----4-----------------------------------|
E|-------------------4-----4-----4-----------------------------------------|


Continues...



___C_______________________________________________________________________
01:55                                " You         are... "
e|-8-----------------8-----------------8-----------------8-----------------|
B|-8-----------------8-----------------8-----------------8-----------------|
G|-9-----------------9-----------------9-----------------9-----------------|
D|-10----------------10----------------10----------------10----------------|
A|-10----------------10----------------10----------------10----------------|
E|-8-----------------8-----------------8-----------------8-----------------|



___C7______________________________________________________________________
 " in                my             pic         -        tures... "
e|-8-----------------8-----------------8-----------------8-----------------|
B|-8-----------------8-----------------8-----------------8-----------------|
G|-9-----------------9-----------------9-----------------9-----------------|
D|-8-----------------8-----------------8-----------------8-----------------|
A|-10----------------10----------------10----------------10----------------|
E|-8-----------------8-----------------8-----------------8-----------------|



___Ebm_____________________________________________________________________
 " too... "
e|-6-----------------6-----------------6-----------------6-----------------|
B|-7-----------------7-----------------7-----------------7-----------------|
G|-8-----------------8-----------------8-----------------8-----------------|
D|-8-----------------8-----------------8-----------------8-----------------|
A|-6-----------------6-----------------6-----------------6-----------------|
E|-------------------------------------------------------------------------|



___Ebm7____________________________________________________________________

e|-6-----------------6-----------------6-----------------6-----------------|
B|-7-----------------7-----------------7-----------------7-----------------|
G|-6-----------------6-----------------6-----------------6-----------------|
D|-8-----------------8-----------------8-----------------8-----------------|
A|-6-----------------6-----------------6-----------------6-----------------|
E|-------------------------------------------------------------------------|



___Ab/C____________________________________________________________________
                                     " Por      -        traits... "
e|-8-----------------8-----------------8-----------------8-----------------|
B|-9-----------------9-----------------9-----------------9-----------------|
G|-8-----------------8-----------------8-----------------8-----------------|
D|-10----------------10----------------10----------------10----------------|
A|-11----------------11----------------11----------------11----------------|
E|-8-----------------8-----------------8-----------------8-----------------|



___B_______________________________________________________________________
 " of          the               moon              in... "
e|-7-----------------7-----------------7-----------------7-----------------|
B|-7-----------------7-----------------7-----------------7-----------------|
G|-8-----------------8-----------------8-----------------8-----------------|
D|-9-----------------9-----------------9-----------------9-----------------|
A|-9-----------------9-----------------9-----------------9-----------------|
E|-7-----------------7-----------------7-----------------7-----------------|



___Gb______________________________________________________________________
 " sil    -    ver        and          blue... "
e|-6-----------------------------------------------------------------------|
B|-7-----------------------------------------------------------------------|
G|-6-----------------------------------------------------------------------|
D|-8-----------------------------------------------------------------------|
A|-9-----------------------------------------------------------------------|
E|-------------------------------------------------------------------------|



___Eb______________________________________________________________________

e|-3-----------------------------------------------------------------------|
B|-4-----------------------------------------------------------------------|
G|-3-----------------------------------------------------------------------|
D|-5-----------------------------------------------------------------------|
A|-6-----------------------------------------------------------------------|
E|-------------------------------------------------------------------------|



Repeat instrumental, Eb part, thus:



___Eb_(x65343)_____________________________________________________________
02:10
e|-------------------------------------------------------------------------|
B|-------------------------------------------------------------------------|
G|-------------------------------------------------------------------------|
D|-------------------------------------------------------------6-----------|
A|-6~~~~~~~~~~~~~~~~~~~~~~~~~~~~~------6-----------5-----------------------|
E|-------------------------------------------------------------------------|



___Eb_(x65343)_____________________________________________________________

e|-------------------------------------------------------------------------|
B|-------------------------------------------------------------------------|
G|-------------------------------------------------------------------------|
D|-5~~~~~~~~~~~~~~~~~~~~~~~~~~~~~------------------------------------------|
A|-------------------------------------------------------------------------|
E|-------------------------------------------------------------------------|



___Ab_(466544)_____________________________________________________________

e|-------------------------------------------------------------------------|
B|-------------------------------------------------------------------------|
G|-------------------------------------------------------------6-----------|
D|-6~~~~~~~~~~~~~~~~~~~~~~~~~~~~~------6-----------5-----------------------|
A|-------------------------------------------------------------------------|
E|-------------------------------------------------------------------------|



___Ab_(466544)_______________________________________________________Bb_(688566)_

e|-------------------------------------------------------------------------|
B|-------------------------------------------------------------------------|
G|-5~~~~~~~~~~~~~~~~~~~~~~~~~~~~~~~~~~~~~~~~~~~~~~~------------------7-----|
D|-------------------------------------------------------------------------|
A|-------------------------------------------------------------------------|
E|-------------------------------------------------------------------------|





___Eb5_(x688xx)________________________D_(x577xx)__________________________

e|-------------------------------------------------------------------------|
B|-------------------------------------------------------------------------|
G|-8~~~~~~~~~~~~~~~~~~~~~~~~~~~~~------7~~~~~~~~~~~~~~~~~~~~~~~~~~~~~------|
D|-------------------------------------------------------------------------|
A|-------------------------------------------------------------------------|
E|-------------------------------------------------------------------------|



___Db5_(x455xx)____________________________________________________________

e|---------------------------------------------------------------------------|
B|---------------------------------------------------------------------------|
G|-6/----------------------------------------------------------------8^~~~~~-|
D|---------------------------------------------------------------------------|
A|---------------------------------------------------------------------------|
E|---------------------------------------------------------------------------|



Repeat intro.


Solo: 02:21



___Db_(x43121)_____________________________________________________________
02:21
e|-------------6-----------------------------------------------------------|
B|-------6-----------6-----9-----------6-----------------------------------|
G|b10----------------------------8-----------6----h8-----------6-----------|
D|-------------------------------------------------------8-----------6-----|
A|-------------------------------------------------------------------------|
E|-------------------------------------------------------------------------|



___Db_(x43121)_____________________________________________________________

e|-------------------------------------------------------------------------|
B|-------------------------------------------------------------------------|
G|-------------------------------6-----------------------------------8^~~~-|
D|-8-----6-----------6-----8-----------8~~~~~~~~~~~~~~~~~~~~~~~------------|
A|-------------8-----------------------------------------------------------|
E|-------------------------------------------------------------------------|



___Eb_(x43121)_____________________________________________________________

e|-------------6-----------------------------------------------------------|
B|-------6-----------6-----9-----------6-----------------------------------|
G|b10----------------------------8-----------6----h8-----------6------5----|
D|----------------------------------------------------6--h8----------------|
A|-------------------------------------------------------------------------|
E|-------------------------------------------------------------------------|



___Db_(x43121)_____________________________________________________________

e|----------------------------------------|--------------------------------|
B|----------------------------------------|--------------------------------|
G|----------------------------------------|--------------------------------|
D|-8-----6--------------------------------|--------------------------------|
A|-------------8-\6-p4-----6-----------6~~~~~~~~~~~~~~~~~~~~~~~~~~~~~~~~~~-|
E|-------------------------------8--------|--------------------------------|



___Gb_(244322)_____________________________________________________________

e|-------------------------------------------------------------------------|
B|-------------------------------------------------------------------------|
G|-------------------------------------------------------------------------|
D|-------------------------------------11----13----15----11----13----15----|
A|/11----13----15----11----13----15----------------------------------------|
E|-------------------------------------------------------------------------|



___Gb_(244322)_____________________________________________________________

e|-------------------------------------------------------------------------|
B|-------------------------------------13----14----16----13----14----16----|
G|-11----13----15----11----13----15----------------------------------------|
D|-------------------------------------------------------------------------|
A|-------------------------------------------------------------------------|
E|-------------------------------------------------------------------------|



___Db_(x43121)_____________________________________________________________

e|-13----------14---------/16----------------------14----------16----------|
B|-------------------------------------18----------------------------------|
G|-------------------------------------------------------------------------|
D|-------------------------------------------------------------------------|
A|-------------------------------------------------------------------------|
E|-------------------------------------------------------------------------|



___Db_(x43121)_____________________________________________________________

e|-18\-----------------------------------------------------------------------|
B|---------------------------------------------------------------------------|
G|-------------------------------------------------------------------8^~~~~~-|
D|---------------------------------------------------------------------------|
A|---------------------------------------------------------------------------|
E|---------------------------------------------------------------------------|


Continues...


___Db_(x43121)_____________________________________________________________
02:36
e|-------6-----------------------------------------------------------------|
B|-------------6-----9-----------6-----------------------------------------|
G|~8b10--------------------8-----------6-----8-----------6-----------------|
D|-------------------------------------------------8-----------6----h8-----|
A|-------------------------------------------------------------------------|
E|-------------------------------------------------------------------------|



___Db_(x43121)_____________________________________________________________

e|---------------------------------------------------------------------------|
B|---------------------------------------------------------------------------|
G|-8-----6-------------------------------------------------------------------|
D|-------------8-----6-------------------------------------------------------|
A|------------------------8s6----4-----6~~~~~~~~~~~~~~~~-4~~~~~------6~~~~~~-|
E|---------------------------------------------------------------------------|



___Eb_(x65343)_____________________________________________________________

e|-------------------------------------------------------------------6-----|
B|-------------------------------------------------------------6-----------|
G|-------------------6-----------6-----6-----------6-----6b8---------------|
D|-------6-----8-----------8-----------------8-----------------------------|
A|/8-----------------------------------------------------------------------|
E|-------------------------------------------------------------------------|



__Eb_(x65343)______________________________________________________________

e|-6-----------------------------------------------------------------------|
B|-------9-----------6-----------------------------------------------------|
G|-------------8-----------6-----8-----6~~~~~~~~~~~~~~~~~~~----------------|
D|-------------------------------------------------------------------------|
A|-------------------------------------------------------------------------|
E|-------------------------------------------------------------------------|



___Gb_(244322)_____________________________________________________________

e|-------------------------------------------------------------------------|
B|-------------------------------------------------------------------------|
G|-------------------------------------------------------------------------|
D|-------------------------------------11----13----15----11----13----15----|
A|-11----13----15----11----13----15----------------------------------------|
E|-------------------------------------------------------------------------|



___Gb_(244322)_____________________________________________________________

e|-------------------------------------------------------------------------|
B|-------------------------------------13----14----16----13----14----16----|
G|-11----13----15----11----13----15----------------------------------------|
D|-------------------------------------------------------------------------|
A|-------------------------------------------------------------------------|
E|-------------------------------------------------------------------------|



___Db_(x43121)_____________________________________________________________

e|-13----------14---------/16----------------------14----------16----------|
B|-------------------------------------18----------------------------------|
G|-------------------------------------------------------------------------|
D|-------------------------------------------------------------------------|
A|-------------------------------------------------------------------------|
E|-------------------------------------------------------------------------|



___Db_(x43121)_____________________________________________________________

e|-18\---------------------------------------------------------------------|
B|-------------------------------------------------------------------------|
G|-------------------------------------------------------------------------|
D|-------------------------------------------------------------------------|
A|-------------------------------------------------------------------------|
E|-------------------------------------------------------------------------|




Repeat verse. 02:51


Ringing in the changes
Chiming like a church bell
Laughing in the mirror
Phantoms of the hotel
Oh well, we'll make music in dreamland tonight...

Driving like a madman
Trying to make a fast time
Theatre full of strangers
Waiting for a new rhyme
No time to make music in dreamland tonight


It's time to make music in dreamland tonight
Your mine and my music's in dreamland...



_______________________________________Abm_(466444)________________________
 " tonight... "
e|---------------------------------------------------------------------------|
B|---------------------------------------------------------------------------|
G|---------------------------------------------------------------------------|
D|-4-----3-------------------------------------------------------------------|
A|-------------6-----4-----2-------------------------------------------------|
E|-------------------------------6-----4~~~~~~~~~~~~~~~~~~~~~~~~~~~~~~~~~~~~-|



Play Abm chord until...


( rhythym chords in brackets )


___B_(799877)______________________________________________________________
03:38
e|-------------------------------------------------------------------------|
B|-------------------------------------------------------------------------|
G|-------------------------------------------------------------------------|
D|-------------------------------------------------------------------------|
A|-2~~~~~~~~~~~~~~~~~~~~~~~~~~~~~~~~~~~~~~~~~~~~~~~~~~~~~~~~~~~~~~~~~~-----|
E|-------------------------------------------------------------------------|


___Gb/Bb_(698676)__________________________________________________________

e|-------------------------------------------------------------------------|
B|-------------------------------------------------------------------------|
G|-------------------------------------------------------------------------|
D|-------------------------------------------------------------------------|
A|-1~~~~~~~~~~~~~~~~~~~~~~~~~~~~~~~~~~~~~~~~~~~~~~~~~~~~~~~~~~~~~~~~~~-----|
E|-------------------------------------------------------------------------|


___A_(577655)______________________________________________________________

e|-------------------------------------------------------------------------|
B|-------------------------------------------------------------------------|
G|-------------------------------------------------------------------------|
D|-------------------------------------------------------------------------|
A|-0~~~~~~~~~~~~~~~~~~~~~~~~~~~~~~~~~~~~~~~~~~~~~~~~~~~~~~~~~~~~~~~~~~-----|
E|-------------------------------------------------------------------------|


___Abm_(466444)____________________________________Gb_(244322)_____________

e|-------------------------------------------------------------------------|
B|-------------------------------------------------------------------------|
G|-------------------------------------------------------------------------|
D|-------------------------------------------------------------------------|
A|-------------------------------------------------------------------------|
E|-4~~~~~~~~~~~~~~~~~~~~~~~~~~~~~~~~~~~~~~~~~------2-----------2-----------|




___B_(799877)______________________________________________________________

e|-------------------------------------------------------------------------|
B|-------------------------------------------------------------------------|
G|-------------------------------------------------------------------------|
D|-------------------------------------------------------------------------|
A|--2~~~~~~~~~~~~~~~~~~~~~~~~~~~~~~~~~~~~~~~~~~~~~~~~~~~~~~~~~~~~~~~~~-----|
E|-------------------------------------------------------------------------|


___Gb/Bb_(698676)__________________________________________________________

e|-------------------------------------------------------------------------|
B|-------------------------------------------------------------------------|
G|-------------------------------------------------------------------------|
D|-------------------------------------------------------------------------|
A|-1~~~~~~~~~~~~~~~~~~~~~~~~~~~~~~~~~~~~~~~~~~~~~~~~~~~~~~~~~~~~~~~~~~-----|
E|-------------------------------------------------------------------------|


___A_(577655)______________________________________________________________

e|-------------------------------------------------------------------------|
B|-------------------------------------------------------------------------|
G|-------------------------------------------------------------------------|
D|-------------------------------------------------------------------------|
A|-0~~~~~~~~~~~~~~~~~~~~~~~~~~~~~~~~~~~~~~~~~~~~~~~~~~~~~~~~~~~~~~~~~~-----|
E|-------------------------------------------------------------------------|


___Abm_(466444)____________________________________________________________

e|-------------------------------------------------------------------------|
B|-------------------------------------------------------------------------|
G|-------------------------------------------------------------------------|
D|-------------------------------------------------------------------------|
A|-------------------------------------------------------------------------|
E|-4~~~~~~~~~~~~~~~~~~~~~~~~~~~~~~~~~~~~~~~~~~~~~~~~~~~~~~~~~~~~~~~~~~-----|


___Gb_(244322)______________________________________________________________

e|-------------------------------------------------------------------------|
B|-------------------------------------------------------------------------|
G|-------------------------------------------------------------------------|
D|-------------------------------------------------------------------------|
A|-------------------------------------------------------------------------|
E|-2~~~~~~~~~~~~~~~~~~~~~~~~~~~~~~~~~~~~~~~~~~~~~~~~~~~~~~~~~~~~~~~~~~~----|



Finale, with guitar solo.


Words & Music by Bill Nelson




To be continued...





| /  slide up
| \  slide down
| s  very rapid slide, sounds like one note
| h  hammer-on
| p  pull-off
| ~  vibrato or sustain
| +  harmonic
| x  Mute note
| b  bend
| r  relax bend
| pb pre-bend
| ^  quarter tone bend
| (x7678x) chord shape



___________________________________________________________________________

e|-------------------------------------------------------------------------|
B|-------------------------------------------------------------------------|
G|-------------------------------------------------------------------------|
D|-------------------------------------------------------------------------|
A|-------------------------------------------------------------------------|
E|-------------------------------------------------------------------------|

 | 1  -  2  -  3  -  1  -  2  -  3  -  1  -  2  -  3  -  1  -  2  -  3  -  |
Tap to rate this tab
# A B C D E F G H I J K L M N O P Q R S T U V W X Y Z