Song name
# A B C D E F G H I J K L M N O P Q R S T U V W X Y Z

Be Bop Deluxe - Dangerous Stranger tab

-------------------------------------------------------------------------------
Dangerous Stranger - Be Bop Deluxe
-------------------------------------------------------------------------------



Tabbed by: axe victim

Leave a message on my  ‘Ultimate Guitar’  profile or comment
here and I’ll get back to you.

Tuning: EADGBe

| /  slide up
| \  slide down
| s  slur ( very quick slide with emphasis on the last note )
| h  hammer-on
| p  pull-off
| b  bend
| r  relax bend
| pb pre-bend note to pitch
| ~  vibrato
| +  harmonic
| x  Mute note
|(0) optional note



From Drastic Plastic, a song with a great guitar solo.  



Intro:


___A________________________________D___________E__________________ 
 Electric guitar...
e|--------------------------------|--------------------------------|
B|--------------------------------|--------------------------------|
G|--------------------------------|-7-----------9------------------|
D|-7------------------------------|-7-----------9-----------7---7--|
A|-7------------------------------|-5-----------7-----------7---7--|
E|-5------------------------------|-------------------------5---5--|

 Acoustic guitar...
e|-0-------0---0-------0---0---0--|-2-------x---0-------0---0---0--|
B|-2-------2---2-------2---2---2--|-3-------x---0-------0---0---0--|
G|-2-------2---2-------2---2---2--|-2-------x---1-------1---1---1--|
D|-2-------2---2-------2---2---2--|-0-------x---2-------2---2---2--|
A|-0-------0---0-------0---0---0--|---------x---2-------2---2---2--|
E|--------------------------------|---------x---0-------0---0---0--|

 | 1 - & - 2 - & - 3 - & - 4 - & -| 1 - & - 2 - & - 3 - & - 4 - & -|



Repeat until:


___A________________________________D______________________________ 
 Electric guitar...
e|--------------------------------|--------------------------------|
B|--------------------------------|--------------------------------|
G|--------------------------------|--------------------------------|
D|-7------------------------------|-7------------------------------|
A|-7------------------------------|-7------------------------------|
E|-5------------------------------|-5------------------------------|

 Acoustic guitar...
e|-0-------0---0-------0---0------|-0------------------------------|
B|-2-------2---2-------2---2------|-2------------------------------|
G|-2-------2---2-------2---2------|-2------------------------------|
D|-2-------2---2-------2---2------|-2------------------------------|
A|-0-------0---0-------0---0------|-0------------------------------|
E|--------------------------------|--------------------------------|




Verse:


___A________________________________D_______________E______________ 
    " It's after   midnight in the  city    of      broken... "
e|-0-------0---0-------0---0------|-2---2---2-------0---0---0------|
B|-2-------2---2-------2---2------|-3---3---3-------0---0---0------|
G|-2-------2---2-------2---2------|-2---2---2-------1---1---1------|
D|-2-------2---2-------2---2------|-0---0---0-------2---2---2------|
A|-0-------0---0-------0---0------|-----------------2---2---2------|
E|--------------------------------|-----------------0---0---0------|

 | 1 - & - 2 - & - 3 - & - 4 - & -| 1 - & - 2 - & - 3 - & - 4 - & -|


___A________________________________D_______________E______________ 
 " dreams "
e|-0-------0---0-------0---0------|-2---2---2-------0---0---0------|
B|-2-------2---2-------2---2------|-3---3---3-------0---0---0------|
G|-2-------2---2-------2---2------|-2---2---2-------1---1---1------|
D|-2-------2---2-------2---2------|-0---0---0-------2---2---2------|
A|-0-------0---0-------0---0------|-----------------2---2---2------|
E|--------------------------------|-----------------0---0---0------|


___A________________________________D_______________E______________ 
 " Down    in the   alley, Gal - i - leo   meets his pack of... "
e|-0-------0---0-------0---0------|-2---2---2-------0---0---0------|
B|-2-------2---2-------2---2------|-3---3---3-------0---0---0------|
G|-2-------2---2-------2---2------|-2---2---2-------1---1---1------|
D|-2-------2---2-------2---2------|-0---0---0-------2---2---2------|
A|-0-------0---0-------0---0------|-----------------2---2---2------|
E|--------------------------------|-----------------0---0---0------|


___A________________________________D_______________E______________ 
 " thieves "
e|-0-------0---0-------0---0------|-2---2---2-------0--------------|
B|-2-------2---2-------2---2------|-3---3---3-------0--------------|
G|-2-------2---2-------2---2------|-2---2---2-------1--------------|
D|-2-------2---2-------2---2------|-0---0---0-------2--------------|
A|-0-------0---0-------0---0------|-----------------2--------------|
E|--------------------------------|-----------------0--------------|



___Eb__E____________________________Eb__E__________________________
 " O   -   ver the ri  ver by  the  old     ho   -  tel     there's a... "
e|--------------------------------|--------------------------------|
B|--------------------------------|--------------------------------|
G|--------------------------------|--------------------------------|
D|-8--/9---9---9---8--/9---9---9--|-8--/9---9---9---8--/9---9------|
A|-6--/7---7---7---6--/7---7---7--|-6--/7---7---7---6--/7---7------|
E|--------------------------------|-----------------------------0--|

 | 1 - & - 2 - & - 3 - & - 4 - & -| 1 - & - 2 - & - 3 - & - 4 - & -|


___D_______________________________________________________________ 
 " big     car     coming like a    bat out of  Hell,       its the... "
e|-2------------------------------|--------------------------------|
B|-3------------------------------|--------------------------------|
G|-2------------------------------|--------------------------------|
D|-0------------------------------|--------------------------------|
A|--------------------------------|--------------------------------|
E|--------------------------------|--------------------------------|


___A________________________________D_______________E______________ 
 " dangerous   stran - ger in   his ghost - ly      limousine.... "
e|-0-------0---0-------0---0------|-2---2---2-------0---0---0------|
B|-2-------2---2-------2---2------|-3---3---3-------0---0---0------|
G|-2-------2---2-------2---2------|-2---2---2-------1---1---1------|
D|-2-------2---2-------2---2------|-0---0---0-------2---2---2------|
A|-0-------0---0-------0---0------|-----------------2---2---2------|
E|--------------------------------|-----------------0---0---0------|



___A_______________________________________________________________ 

e|-0-------0---0-------0---0------|-0------------------------------|
B|-2-------2---2-------2---2------|-2------------------------------|
G|-2-------2---2-------2---2------|-2------------------------------|
D|-2-------2---2-------2---2------|-2------------------------------|
A|-0-------0---0-------0---0------|-0------------------------------|
E|--------------------------------|--------------------------------|



Repeat verse, electric guitar riff begins ( acoustic chords in brackets )



_______A_(x02220)_______________________D_(xx0232)__E_(022100)_____ 
     " You get the feeling that he's running in an  end-less    race... " 
e|-x---5-------x---5-------x---x--|-x---10------x---12------x---x--|
B|-x---5-------x---5-------x---x--|-x---10------x---12------x---x--|
G|-x---6-------x---6-------x---x--|-x---11------x---13------x---x--|
D|-x---7-------x---7-------x---x--|-x---12------x---14------x---x--|
A|-x---7-------x---7-------x---x--|-x---12------x---14------x---x--|
E|-x---5-------x---5-------x---x--|-x---10------x---12------x---x--|

 | 1 - & - 2 - & - 3 - & - 4 - & -| 1 - & - 2 - & - 3 - & - 4 - & -|



_______A_(x02220)_______________________D_(xx0232)__A_(x02220)_____

e|-x---5-------x---5-------x---x--|-x---10------x---5------x---x---|
B|-x---5-------x---5-------x---x--|-x---10------x---5------x---x---|
G|-x---6-------x---6-------x---x--|-x---11------x---6------x---x---|
D|-x---7-------x---7-------x---x--|-x---12------x---7------x---x---|
A|-x---7-------x---7-------x---x--|-x---12------x---7------x---x---|
E|-x---5-------x---5-------x---x--|-x---10------x---5------x---x---|


_______A_(x02220)_______________________D_(xx0232)__E_(022100)_____
 " Driving through the city like a  ra-zor  a - cross   its     face... "
e|-x---5-------x---5-------x---x--|-x---10------x---12-----x---x---|
B|-x---5-------x---5-------x---x--|-x---10------x---12-----x---x---|
G|-x---6-------x---6-------x---x--|-x---11------x---13-----x---x---|
D|-x---7-------x---7-------x---x--|-x---12------x---14-----x---x---|
A|-x---7-------x---7-------x---x--|-x---12------x---14-----x---x---|
E|-x---5-------x---5-------x---x--|-x---10------x---12-----x---x---|


_______A_(x02220)_______________________D_(xx0232)__A_(x02220)_____

e|-x---5-------x---5-------x---x--|-x---10------x---5--------------|
B|-x---5-------x---5-------x---x--|-x---10------x---5--------------|
G|-x---6-------x---6-------x---x--|-x---11------x---6--------------|
D|-x---7-------x---7-------x---x--|-x---12------x---7--------------|
A|-x---7-------x---7-------x---x--|-x---12------x---7--------------|
E|-x---5-------x---5-------x---x--|-x---10------x---5--------------|



___Eb__E____________________________Eb__E__________________________
 " Stops on the cor  - ner in  a    flash of    flame,  he calls to... "
e|--------------------------------|--------------------------------|
B|--------------------------------|--------------------------------|
G|--------------------------------|--------------------------------|
D|-8--/9---9---9---8--/9---9---9--|-8--/9---9---9---8--/9---9------|
A|-6--/7---7---7---6--/7---7---7--|-6--/7---7---7---6--/7---7------|
E|--------------------------------|-----------------------------0--|


___D_______________________________________________________________ 
 " me    ( Hey     boy,             what's your name? )     He's the ... "
e|-2------------------------------|--------------------------------|
B|-3------------------------------|--------------------------------|
G|-2------------------------------|--------------------------------|
D|-0------------------------------|--------------------------------|
A|--------------------------------|--------------------------------|
E|--------------------------------|-------------------------3^-----|


___A________________________________D_______________E______________ 
 " stranger with a danger  if   you ever    get to  play his    game..... "
e|-x---5-------x---5-------x---x--|-x---10------x---12------x---x--|
B|-x---5-------x---5-------x---x--|-x---10------x---12------x---x--|
G|-x---6-------x---6-------x---x--|-x---11------x---13------x---x--|
D|-x---7-------x---7-------x---x--|-x---12------x---14------x---x--|
A|-x---7-------x---7-------x---x--|-x---12------x---14------x---x--|
E|-x---5-------x---5-------x---x--|-x---10------x---12------x---x--|



_______A___________________D________A______________________________

e|-x---5-------x---5---x---10--x--|-5------------------------------|
B|-x---5-------x---5---x---10--x--|-5------------------------------|
G|-x---6-------x---6---x---11--x--|-6------------------------------|
D|-x---7-------x---7---x---12--x--|-7------------------------------|
A|-x---7-------x---7---x---12--x--|-7---------------0--------------|
E|-x---5-------x---5---x---10--x--|-7-----------------------4------|




Chorus:


___F#m______________________________D______________________________ 
     " I   want to go  for a   ride                             to... "
e|---------2---2-------2---2------|-2-------2---2-------2---2------|
B|---------2---2-------2---2------|-3-------3---3-------3---3------|
G|---------2---2-------2---2------|-2-------2---2-------2---2------|
D|-4-------4---4-------4---4------|-0-------0---0-------0---0------|
A|-4-------4---4-------4---4------|--------------------------------|
E|-2-------2---2-------2---2------|--------------------------------|

 | 1 - & - 2 - & - 3 - & - 4 - & -| 1 - & - 2 - & - 3 - & - 4 - & -|


___G________________________________F#m____________________________ 
 " see what    lies    on  the      other       side... "
e|-3-------3---3-------3---3------|-2-------2---2-------2---2------|
B|-3-------3---3-------3---3------|-2-------2---2-------2---2------|
G|-0-------0---0-------0---0------|-2-------2---2-------2---2------|
D|-0-------0---0-------0---0------|-4-------4---4-------4---4------|
A|-x-------x---x-------x---x------|-4-------4---4-------4---4------|
E|-3-------3---3-------3---3------|-2-------2---2-------2---2------|


___D________________________________Bm_____________________________ 
     " I  want to   go for a    ride... "
e|-2-------2---2-------2---2------|-2-------2---2-------2---2------|
B|-3-------3---3-------3---3------|-3-------3---3-------3---3------|
G|-2-------2---2-------2---2------|-4-------4---4-------4---4------|
D|-0-------0---0-------0---0------|-4-------4---4-------4---4------|
A|--------------------------------|-2-------2---2-------2---2------|
E|--------------------------------|--------------------------------|


___E_______________________________________________________________ 
 " tonight... "
e|-0-------0---0-------0---0---0--|-0-------0---0-------0---0---0--|
B|-0-------0---0-------0---0---0--|-0-------0---0-------0---0---0--|
G|-1-------1---1-------1---1---1--|-1-------1---1-------1---1---1--|
D|-2-------2---2-------2---2---2--|-2-------2---2-------2---2---2--|
A|-2-------2---2-------2---2---2--|-2-------2---2-------2---2---2--|
E|-0-------0---0-------0---0---0--|-0-------0---0-------0---0---0--|

 | 1 - & - 2 - & - 3 - & - 4 - & -| 1 - & - 2 - & - 3 - & - 4 - & -|


___E_______________________________________________________________ 
 " tonight... "
e|-0-------0---0-------0---0---0--|-0------------------------------|
B|-0-------0---0-------0---0---0--|-0------------------------------|
G|-1-------1---1-------1---1---1--|-1------------------------------|
D|-2-------2---2-------2---2---2--|-2------------------------------|
A|-2-------2---2-------2---2---2--|-2------------------------------|
E|-0-------0---0-------0---0---0--|-0------------------------------|




Repeat verse more or less the same, with riff:



I climb right in, like a fool I say I'll go
I listen to the messages comin' through his radio
Is that my name on channel nine? They say 
"You're going away for a long long time"

With the dangerous stranger from a station on the other side.

I want to go for a ride
To see what lies on the other side
I want to go for a ride tonight, tonight.

The night is black and the stars no longer burn
The radio says that we're past the point of no return
I scream at the driver but he says 
"No way, you shouldn't have come if you didn't want to stay"

He's the dangerous stranger on a highway to the end of time
He's the dangerous stranger on a highway to the end of time.




Guitar Solo: Key Changes to C.  Rhythm chord shapes in brackets.



___C_(x32010)_______________________G_(3x0003)_____________________ 

e|--------------------------------|--------------------------------|
B|-11~~~~~~~~------11~~~~~~~~~~---|--------------------------------|
G|-10b12~~~~~-10p8-10b12~~~~~~~---|-8---9---8---9------------------|
D|--------------------------------|-----------------10-------------|
A|--------------------------------|---------------------10--8--p7--|
E|--------------------------------|--------------------------------|


___F_(133211)_______________________________________F_______G______ 

e|--------------------------------|-----5--------------------------|
B|--------------------------------|---------8p5---5----------------|
G|-----------------5-------5---7~~~b9-----------7---8-7-5---7p5----|
D|-10~~\---5--h7-------7----------------------------------7----7p5-|
A|--------------------------------|--------------------------------|
E|--------------------------------|--------------------------------|


___C________________________________G______________________________ 

e|--------------------------------|--------------------------------|
B|--------------------------------|--------------------------------|
G|-5~~----------------------------|--------------------------------|
D|---------7---5------------------|--------------------------------|
A|-----------------7s5-3---5------|-----3---5---6b7~~~~~~~~~5b6~~--|
E|-----------------------------3--|-5------------------------------|


___F________________________________________________F_______G______ 

e|--------------------------------|-----------------8--------------|
B|--------------------------------|-------------8-------11b13~~~---|
G|--------------------------------|-5---7--/9----------------------|
D|-----------------------------5--|--------------------------------|
A|-3---------------3---5--/7------|--------------------------------|
E|-----5---3---5------------------|--------------------------------|


___C________________________________G______________________________ 
 
e|---------11--12--13-b15~~~~~~---|-11--12------------------15--14-|
B|--------------------------------|---------13----------13---------|
G|--------------------------------|-------------12-/14-------------|
D|--------------------------------|--------------------------------|
A|--------------------------------|--------------------------------|
E|--------------------------------|--------------------------------|


___F________________________________________________F_______G______ 
 
e|-13--------------------------15------15-15---15-15---15-15---15-15-
B|-----16^-13------13--15-b17-------b17-----b17-----b17-----b17----|
G|-------------14-----------------|--------------------------------|
D|--------------------------------|--------------------------------|
A|--------------------------------|--------------------------------|
E|--------------------------------|--------------------------------|


___C________________________________G______________________________ 

e|-15~~~~~~15~~~~~~~~~~~~~~~15-------------------------------------|
B|-15b17~~~15b17~~~~~~~~~~~~~~~17~~r15--13-------------------------|
G|--------------------------------|---------14~~----12--15b17~~-14p12
D|--------------------------------|--------------------------------|
A|--------------------------------|--------------------------------|
E|--------------------------------|--------------------------------|


___F________________________________________________F_______G______ 

e|--------------------------------|--------------------------------|
B|--------------------------------|--------------------------------|
G|-14~~12h14p12p10-12p10p9-10--9--|--------------------------------|
D|--------------------------------|-10--------------10~~\~~~/------|
A|--------------------------------|-----10--8---7------------------|
E|--------------------------------|--------------------------------|



___A_(x02220)__________________________G(3x0033)__D(2x0232)_E(022xxx)

e|-----20b22~~~-19b20~19b21r19-17-----------17---------------------|
B|-------------------------------20b22r20b22---20p17----17---------|
G|--------------------------------|-----------------19------17--18-|
D|--------------------------------|--------------------------------|
A|--------------------------------|--------------------------------|
E|--------------------------------|--------------------------------|


___A_(x02220)______________________________________________________ 
 
e|---------------------17---------|---------x---x---x--------------|
B|---------19---------------------|---------x---x---x--------------|
G|-17--18------17--18------17--18-|---------x---x---x--------------|
D|--------------------------------|-19------x---x---x--------------|
A|--------------------------------|---------x---x---x--------------|
E|--------------------------------|---------x---x---x--------------|

 | 1 - & - 2 - & - 3 - & - 4 - & -| 1 - & - 2 - & - 3 - & - 4 - & -|



Words & music by Bill Nelson
Tap to rate this tab
# A B C D E F G H I J K L M N O P Q R S T U V W X Y Z