Song name
# A B C D E F G H I J K L M N O P Q R S T U V W X Y Z

Be Bop Deluxe - New Precision tab

-------------------------------------------------------------------------------
New Precision - Be Bop Deluxe
-------------------------------------------------------------------------------

Tabbed by: axe victim


Leave a message on my  ‘Ultimate Guitar’  profile or comment
here and I’ll get back to you.

Tuning: EADGBe

| /  slide up
| \  slide down
| s  slur ( very quick slide with emphasis on the last note )
| h  hammer-on
| p  pull-off
| b  bend
| r  relax bend
| pb pre-bend note to pitch
| ~  vibrato or sustain
| +  harmonic
| x  Mute note
|(0) optional note




Song from Drastic Plastic.  Sounds like Bill played a Strat on this one.



Intro: Drums and Bass at first, then...


________________________________________________________________F5_

e|--------------------------------|--------------------------------|
B|--------------------------------|--------------------------------|
G|--------------------------------|--------------------------------|
D|--------------------------------|-----------------------------3--|
A|--------------------------------|-----------------------------3--|
E|--------------------------------|-----------------------------1--|



___G5_______________________________G5__________________________F5_

e|--------------------------------|--------------------------------|
B|--------------------------------|--------------------------------|
G|--------------------------------|--------------------------------|
D|/5------------------------------|-5---------------------------3--|
A|/5------------------------------|-5---------------------------3--|
E|/3------------------------------|-3---------------------------1--|

 | 1 - & - 2 - & - 3 - & - 4 - & -| 1 - & - 2 - & - 3 - & - 4 - & -|


Repeat last two bars a couple of times.


Verse:


___G5_______________________________A5__________________________F5_
        " With new precision... " 
e|--------------------------------|--------------------------------|
B|--------------------------------|--------------------------------|
G|--------------------------------|--------------------------------|
D|/5------------------------------|-7---------------------------3--|
A|/5------------------------------|-7---------------------------3--|
E|/3------------------------------|-5---------------------------1--|


___G5_______________________________G5__________________________F5_
     " the golden  days return "
e|--------------------------------|--------------------------------|
B|--------------------------------|--------------------------------|
G|--------------------------------|--------------------------------|
D|/5------------------------------|-5---------------------------3--|
A|/5------------------------------|-5---------------------------3--|
E|/3------------------------------|-3---------------------------1--|



Continue, same chords:


___G5_______________________________A5__________________________F5_
     " The lovers prison... "


___G5_______________________________G5__________________________F5_
     " the kingdom of the worm "




Guitar riff now comes in:


___G5_______________________________A5__________________________F5_
     " Driving through empty towns... "
e|--------------------------------|--------------------------------|
B|--------------------------------|--------------------------------|
G|--------------------------------|--------------------------------|
D|---------------------5---3~-----|---------------------8---7~-----|
A|-------------5---7--------------|-------------5---7--------------|
E|-3-----3-5/7--------------------|-5-----5-7/8--------------------|



___G5_______________________________G5__________________________F5_
     " pass me a cigarette "
e|--------------------------------|--------------------------------|
B|--------------------------------|--------------------------------|
G|-------------------------3~-----|--------------------------------|
D|---------------------5---3~-----|--------------------------------|
A|-------------5---7--------------|-5------------------------------|
E|-3-----3-5/7--------------------|-3------------------------------|


Continue with same riff:


___G5_______________________________A5__________________________F5_
     " I think that it could rain... "


___G5_______________________________G5_____________________________
     " in time we all forget "




Key changes for guitar solo; rhythm guitar like this...


___________Bbm_____________F#_______________Bbm_____________F#_____

e|---------6---------------2------|---------6---------------2------|
B|---------6---------------2------|---------6---------------2------|
G|---------6---------------3------|---------6---------------3------|
D|---------8---------------4------|---------8---------------4------|
A|---------8---------------4------|---------8---------------4------|
E|---------6---------------2------|---------6---------------2------|

 | 1 - & - 2 - & - 3 - & - 4 - & -| 1 - & - 2 - & - 3 - & - 4 - & -|




First guitar solo:


___________Bbm_____________F#_______________Bbm_____________F#_____

e|pb13r11p9h11~~-----9h11p9p8--9p8--8s6----------------------------|
B|--------------------------------|-----9---6~~~-------------------|
G|--------------------------------|-------------------8h10p8p6--8p6p5
D|--------------------------------|--------------------------------|
A|--------------------------------|--------------------------------|
E|--------------------------------|--------------------------------|


___________Bbm_____________F#_______________Bbm_____________F#_____

e|--------------------------------|--------------------------------|
B|--------------------------------|--------------------------------|
G|-6~~p5~~---------5-6-8---5------|-----------5-6-----5------------|
D|---------8~~~----------------6--|-8-----6-8-------8---6---8~~~---|
A|--------------------------------|----8---------------------------|
E|--------------------------------|--------------------------------|


___________Bbm_____________F#_______________Bbm_____________F#_____

e|--------------------------------|-------------------------6---9--|
B|---------------------6---7---9--|-6h7p6---6~----------9----------|
G|-8^~r8p6h8~~~-------------------|-------8------------------------|
D|--------------------------------|--------------------------------|
A|--------------------------------|--------------------------------|
E|--------------------------------|--------------------------------|


___________Bbm_____________F#_______________Bbm_____________F#_____

e|-8-------6----------------------|--------------------------------|
B|-----9------6--9----6-----------|-9~~~----8^r8~~~----------------|
G|-----------------8-----6------6-|-8b10----8^r8~~~-6--------------|
D|---------------------------8----|--------------------8--6--------|
A|--------------------------------|-------------------------8\-----|
E|--------------------------------|--------------------------------|


___G5_______________________________G5__________________________F5_

e|--------------------------------|--------------------------------|
B|--------------------------------|--------------------------------|
G|--------------------------------|--------------------------------|
D|-5------------------------------|-5---------------------------3--|
A|-5------------------------------|-5---------------------------3--|
E|-3------------------------------|-3---------------------------1--|



___G5_______________________________G5__________________________F5_

e|--------------------------------|---------------3p2p0------------|
B|-----------------------------5^~~r5~~~~~~~~~~--------3p2p0-------|
G|-----------------------------5^~~r5~~~~~~~~~~-------------3p2p0--|
D|/5------------------------------|------------------------------3p2p0
A|/5------------------------------|--------------------------------|
E|/3------------------------------|--------------------------------|



Repeat verse section, with guitar riff:


"Your tape-recorder-heart spins through a hundred feelings
The program for tonight to send my senses reeling
Beyond the final portal, behind the iron gates
Our lady of illusion, the guardian demon waits, she waits."



Second guitar solo: ( same rhythm chords as first solo )


___________Bbm_____________F#_______________Bbm_____________F#_____

e|--------------------------------|--------------------------------|
B|--------------------------------|--------------------------------|
G|---------------------5---6---8--|-5~~~~~~~~~~~~~~~---------------|
D|-8~~~~~~~~~~~~~~~---------------|---------------------6---8~~~---|
A|--------------------------------|--------------------------------|
E|--------------------------------|--------------------------------|


___________Bbm_____________F#_______________Bbm_____________F#_____

e|--------------------------------|--------------------------------|
B|--------------------------------|--------------------------------|
G|---------------------5-6-8---6--|-5h6p5--5-6--8------------------|
D|-8~~~~--------------------------|------8----------6~~~~~~~~~~~\--|
A|--------------------------------|--------------------------------|
E|--------------------------------|--------------------------------|


___________Bbm_____________F#_______________Bbm_____________F#_____

e|--------------------------------|-----------------------9-8------|
B|--------------------------------|--------------8-----8------9~---|
G|-------------6---8b10r8p6-8~~~--|------8-----7----6--------------|
D|---------6-8--------------------|----7----6----------------------|
A|----/8--------------------------|-6------------------------------|
E|--------------------------------|--------------------------------|


___________Bbm_____________F#_______________Bbm_____________F#_____

e|---------9-11b13~~~~~~~~b13~~~~~~~11~~~~--9h11p9p8---------------|
B|----/11-------------------------|-----------------9-11-9---------|
G|--------------------------------|-------------------------10b12r10\
D|--------------------------------|--------------------------------|
A|--------------------------------|--------------------------------|
E|--------------------------------|--------------------------------|



___G5_______________________________G5__________________________F5_

e|--------------------------------|--------------------------------|
B|-----------------------------5^~~r5~~~~~~~~~~--------------------|
G|-----------------------------5^~~r5~~~~~~~~~~--------------------|
D|/5------------------------------|-----------------------------3--|
A|/5------------------------------|-----------------------------3--|
E|/3------------------------------|-----------------------------1--|



___G5_______________________________G5__________________________F5_

e|--------------------------------|---------------3p2p0------------|
B|-----------------------------5^~~r5~~~~~~~~~~--------3p2p0-------|
G|-----------------------------5^~~r5~~~~~~~~~~-------------3p2p0--|
D|/5------------------------------|------------------------------3p2p0
A|/5------------------------------|--------------------------------|
E|/3------------------------------|--------------------------------|




Repeat verse section, with riff:


"Beware the falling ones, don't look into their eyes
See what tomorrow brings, a hint of genocide
This is the last resort, the world is closing down
Now is the dying season, let's walk into the sea "



___G5_______________________________G5_____________________________
     " let's walk into the sea... "
e|--------------------------------|--------------------------------|
B|--------------------------------|--------------------------------|
G|-------------------------3~-----|--------------------------------|
D|---------------------5---3~-----|-5---------------5/-------------|
A|-------------5---7--------------|-5---------------5/-------------|
E|-3-----3-5/7--------------------|-3------------------------------|


Ending:


___________Bbm_(688666)____F#_(244322)______Bbm_(688666)____F#_(244322)
     " let's walk into the sea... "
e|--------------------------------|--------------------------------|
B|--------------------------------|--------------------------------|
G|---------8b10~~~~~~~r8p6-8~~~---|-6------------------------------|
D|--------------------------------|----8--6------------------------|
A|--------------------------------|---------8--7--6-4-------4^~~\--|
E|--------------------------------|--------------------6--4--------|


___________Bbm_(688666)____F#_(244322)______Bbm_(688666)____F#_(244322)
     " let's walk into the sea... "
e|--------------------------------|---------9b11~~~~~~~r9p7-9-7\---|
B|-------------------------9b11~~~~~~~~r9p6------------------------|
G|---------8b10~~~~~r8p6----------|--------------------------------|
D|--------------------------------|--------------------------------|
A|--------------------------------|--------------------------------|
E|--------------------------------|--------------------------------|


___G5_______________________________G5__________________________F5_
     " let's walk into the sea... "
e|--------------------------------|--------------------------------|
B|--------------------------------|--------------------------------|
G|--------------------------------|--------------------------------|
D|-5------------------------------|-5---------------------------3--|
A|-5------------------------------|-5---------------------------3--|
E|-3------------------------------|-3---------------------------1--|



___G5_______________________________G5__________________________F5_
     " let's walk into the sea... "
e|--------------------------------|--------------------------------|
B|--------------------------------|--------------------------------|
G|--------------------------------|--------------------------------|
D|/5------------------------------|-5------------------------------|
A|/5------------------------------|-5------------------------------|
E|/3------------------------------|-3------------------------------|


___G5_______________________________G5__________________________F5_
     " let's walk into the sea... "
e|-------------------------------5--------------------------------5-
B|-----------------------5----4---|-----------------------5----4---|
G|---------------5----4----3------|---------------5----4----3------|
D|-------5----4----3--------------|-------5----4----3--------------|
A|----4----3----------------------|----4----3----------------------|
E|-3------------------------------|-3------------------------------|



___G5_______________________________G5__________________________F5_
     " let's walk into the sea... "
e|-------------------------------5--3------------------------------|
B|-----------------------5----4---|-----5b7~~~~~~~~~~~~~~~~~/------|
G|---------------5----4----3------|--------------------------------|
D|-------5----4----3--------------|--------------------------------|
A|----4----3----------------------|--------------------------------|
E|-3------------------------------|--------------------------------|



___G5_______________________________G5__________________________F5_
     " let's walk into the sea... "
e|-----15~~~~~~~~~~15~~~~~~~~~~~~~~~~~~~~~~~~~~~~~~~~~~~~~~~~~~~---|
B|-----18b20~~~~~~~18b20~~~~~~~~~~~~~~~~~~~~~~~~~~~~~~~~~~~~~~~~---|
G|--------------------------------|--------------------------------|
D|--------------------------------|--------------------------------|
A|--------------------------------|--------------------------------|
E|--------------------------------|--------------------------------|



Another riff starting about now:



___G5_______________________________G5_____________________________
     " let's walk into the sea... "
e|--------------------------------|--------------------------------|
B|--------------------------------|--------------------------------|
G|-------------------------3~-----|-------------------------3~-----|
D|---------------------5---3~-----|---------------------5---3~-----|
A|-------------5---7--------------|-------------5---7--------------|
E|-3-----3-5/7--------------------|-3-----3-5/7--------------------|


Repeat, until:



___G5______________________________________________________________
     " let's walk into the sea... "
e|--------------------------------|--------------------------------|
B|--------------------------------|--------------------------------|
G|--------------------------------|--------------------------------|
D|-5------------------------------|--------------------------------|
A|-5------------------------------|--------------------------------|
E|-3------------------------------|--------------------------------|


___F5______________________________________________________________
     " let's walk into the sea... "
e|--------------------------------|--------------------------------|
B|--------------------------------|--------------------------------|
G|--------------------------------|--------------------------------|
D|-3------------------------------|----------------------------3---|
A|-3------------------------------|----------------------------3---|
E|-1------------------------------|----------------------------1---|


___G5______________________________________________________________
     " let's walk into the sea... "
e|--------------------------------|--------------------------------|
B|--------------------------------|--------------------------------|
G|--------------------------------|-----5---4----------------------|
D|/5------------------------------|-------------5------------------|
A|/5------------------------------|-----------------5~~~~~~~-------|
E|/3------------------------------|--------------------------------|


___F5______________________________________________________________
     " let's walk into the sea... "
e|--------------------------------|--------------------------------|
B|--------------------------------|--------------------------------|
G|--------------------------------|-----3---2----------------------|
D|-3------------------------------|-------------3--------------3---|
A|-3------------------------------|-----------------3~~~~~~~---3---|
E|-1------------------------------|----------------------------1---|


___G5______________________________________________________________
     " let's walk into the sea... "
e|--------------------------------|--------------------------------|
B|--------------------------------|--------------------------------|
G|--------------------------------|-----5---4----------------------|
D|/5------------------------------|-------------5------------------|
A|/5------------------------------|-----------------5~~~~~~~-------|
E|/3------------------------------|--------------------------------|



Repeat and fade out...




With new precision the golden days return
The lovers prison, the kingdom of the worm
Driving through empty towns, pass me a cigarette
I think that it could rain, in time we all forget.

Your tape-recorder-heart spins through a hundred feelings
The program for tonight to send my senses reeling
Beyond the final portal, behind the iron gates
Our lady of illusion, the guardian demon waits, she waits.

Beware the falling ones, don't look into their eyes
See what tomorrow brings, a hint of genocide
This is the last resort, the world is closing down
Now is the dying season, let's walk into the sea
Let's walk into the sea
Let's walk into the sea
Let's walk into the sea
Let's walk into the sea
Let's walk into the sea.


Words and music by Bill Nelson
Tap to rate this tab
# A B C D E F G H I J K L M N O P Q R S T U V W X Y Z