Song name
# A B C D E F G H I J K L M N O P Q R S T U V W X Y Z

Be Bop Deluxe - Jet Silver And The Dolls Of Venus tab

-------------------------------------------------------------------------------
Jet Silver And the Dolls Of Venus - Be Bop Deluxe
-------------------------------------------------------------------------------

Tabbed by: axe victim


Leave a message on my  ‘Ultimate Guitar’  profile or comment
here and I’ll get back to you.

Tuning: EADGBe

| /  slide up
| \  slide down
| s  slur ( very rapid slide, sounds like one note! )
| h  hammer-on
| p  pull-off
| ~  vibrato or sustain
| b  bend
| r  relax bend
| pb pre-bend note to pitch
| ^  Whammy bar
| +  harmonic
| x  Mute note
|(0) optional note



A favourite song from the incredible Axe Victim album, also covered by 
Jason Falkner.  



Intro: ( acoustic Guitar rhythm chords shown in brackets ) 


___D_(xx0232)______A/D_(xx0655)_____G/D_(xx0433)____________A/D_(xx0655)_

e|12b14r12-10---------------------|--------------------------------|
B|-------------10-----------------|--------------------------------|
G|----------------11b12r11b12r11~-9h11p9p7h9-11p9p7-----7---9------|
D|--------------------------------|-----------------7h9------------|
A|--------------------------------|--------------------------------|
E|--------------------------------|--------------------------------|

 | 1 - & - 2 - & - 3 - & - 4 - & -| 1 - & - 2 - & - 3 - & - 4 - & -|



___D_______________A/D______________G/D_____________________A/D______D_
                                       ( s = slur: very rapid slide )
e|12b14r12-10---------------------|--------------------------------|---
B|-------------10-----------------|--------------------------------|---
G|-----------------11b12r11b12r11~9h11p9p7h9-11p9p7----------------|---
D|--------------------------------|----------------7h9p7-----------|---
A|--------------------------------|----------------------9s7p5h7p5h7p5~~
E|--------------------------------|--------------------------------|---




Verse:

___D_______________A/D______________G/D_____________________A/D____
" Out across the heavens when you're sleeping in your bed,"
e|-2-------2-------5-------5------|-3-------3-------3-------5------|
B|-3-------3-------5-------5------|-3-------3-------3-------5------|
G|-2-------2-------6-------6------|-4-------4-------4-------6------|
D|-----0-------0-------0-------0--|-----0-------0-------0-------0--|
A|--------------------------------|--------------------------------|
E|--------------------------------|--------------------------------|
( Lead guitar... )
e|--------------------------------|--------------------------------|
B|--------------------------------|--------------------------------|
G|--------------------------------|--------------------------------|
D|--------------------------------|--------------------------------|
A|-5~~~~~~~~~~~~~~~~~~~~~~~~~~~~~~~~~~~~~~~~~~~~~~~~~~~~~~~~~~~~~\-|
E|--------------------------------|--------------------------------|



___D_______________A/D______________G/D____________________________
 " Someone turns a light on, can you feel it burn inside    your... "
e|-2-------2-------5-------5------|-3-------3-------3-------3------|
B|-3-------3-------5-------5------|-3-------3-------3-------3------|
G|-2-------2-------6-------6------|-4-------4-------4-------4------|
D|-----0-------0-------0-------0--|-----0-------0-------0-------0--|
A|--------------------------------|--------------------------------|
E|--------------------------------|--------------------------------|
( Lead guitar... )
e|--------------------------------|--------------------------------|
B|-3------------------------------|--------------------------------|
G|-2------------------------------|--------------------------------|
D|-0------------------------------|--------------------------------|
A|--------------------------------|--------------------------------|
E|--------------------------------|--------------------------------|



___Fm_______________________________Fm_____________________________
 " head? "
e|-1-------1-------1--------------|-1-------1-------1--------------|
B|-1-------1-------1--------------|-1-------1-------1--------------|
G|-1-------1-------1--------------|-1-------1-------1--------------|
D|-3-------3-------3--------------|-3-------3-------3--------------|
A|-3-------3-------3-------1-2-3--|-3-------3-------3-------1-2-3--|
E|-1-------1-------1--------------|-1-------1-------1--------------|
( Lead guitar... )
e|--------------------------------|--------------------------------|
B|--------------------------------|--------------------------------|
G|--------------------------------|--------------------------------|
D|--------------------------------|--------------------------------|
A|-------------------------1-2-3--|-------------------------1-2-3--|
E|-1~~~~~~~~~~~~~~~~~~~-----------|-1~~~~~~~~~~~~~~~~~~~-----------|




___D_______________A/D______________G/D_________________________
 " Floating out your window on the  streams of purest sound, can you... "
e|-2-------2-------5-------5------|-3-------3-------3-------3------|
B|-3-------3-------5-------5------|-3-------3-------3-------3------|
G|-2-------2-------6-------6------|-4-------4-------4-------4------|
D|-----0-------0-------0-------0--|-----0-------0-------0-------0--|
A|--------------------------------|--------------------------------|
E|--------------------------------|--------------------------------|
( Lead guitar... )
e|--------------------------------|--------------------------------|
B|-3------------------------------|--------------------------------|
G|-2------------------------------|--------------------------------|
D|-0------------------------------|--------------------------------|
A|--------------------------------|--------------------------------|
E|--------------------------------|--------------------------------|


Pre-chorus:


___C5______________________B5_______Bb5_____________________B5_____
 " see the town...                                       in midnight... " 
e|--------------------------------|--------------------------------|
B|--------------------------------|--------------------------------|
G|-5-------5-------5-------4------|-3-------3-------3-------4------|
D|-5-------5-------5-------4------|-3-------3-------3-------4------|
A|-3-------3-------3-------2------|-1-------1-------1-------2------|
E|--------------------------------|--------------------------------|
( Lead guitar... )
e|--------------------------------|--------------------------------|
B|--------------------------------|--------------------------------|
G|--------------------------------|--------------------------------|
D|--------------------------------|--------------------------------|
A|-3~~~~~~~~~~~~~~~~~~~----2------|-1~~~~~~~~~~~~~~~~~~~----2------|
E|--------------------------------|--------------------------------|




___C5______________________B5_______Bb5_____________________B5_____
 " eiderdown...                                     wrapped in your... "
e|--------------------------------|--------------------------------|
B|--------------------------------|--------------------------------|
G|-5-------5-------5-------4------|-3-------3-------3-------4------|
D|-5-------5-------5-------4------|-3-------3-------3-------4------|
A|-3-------3-------3-------2------|-1-------1-------1-------2------|
E|--------------------------------|--------------------------------|
( Lead guitar... )
e|--------------------------------|--------------------------------|
B|--------------------------------|--------------------------------|
G|--------------------------------|--------------------------------|
D|--------------------------------|--------------------------------|
A|-3~~~~~~~~~~~~~~~~~~~----2------|-1~~~~~~~~~~~~~~~~~~~----2------|
E|--------------------------------|--------------------------------|




___C5______________________B5_______Bb5____________________________
 " Dressing Gown                                        and robed in... "
e|--------------------------------|--------------------------------|
B|--------------------------------|--------------------------------|
G|-5-------5-------5-------4------|-3-------3-------3-------3------|
D|-5-------5-------5-------4------|-3-------3-------3-------3------|
A|-3-------3-------3-------2------|-1-------1-------1-------1------|
E|--------------------------------|--------------------------------|
( Lead guitar... )
e|--------------------------------|--------------------------------|
B|--------------------------------|--------------------------------|
G|--------------------------------|--------------------------------|
D|--------------------------------|--------------------------------|
A|-3~~~~~~~~~~~~~~~~~~~----2------|-1~~~~~~~~~~~~~~~~~~~~~~~-------|
E|--------------------------------|--------------------------------|




___A5______A/G_____A/F#____A/E______A5______A/G_____A/F#____A/E____
 " Space... "
e|--------------------------------|--------------------------------|
B|--------------------------------|--------------------------------|
G|-2-------2-------2-------2------|-2-------2-------2-------2------|
D|-2-------2-------2-------2------|-2-------2-------2-------2------|
A|-0---0-0-x-------x-------x------|-0---0-0-x-------x-------x------|
E|---------3---3-3-2---2-2-0---0-0----------3---3-3-2---2-2-0---0-0-




Chorus:


___D________________________________C6add9_________________________
 " Jet             Sil-ver and the  Dolls       Of Ve - nus span the..."
e|--------------------------------|--------------------------------|
B|--------------------------------|--------------------------------|
G|---------2-----------2----------|---------2-----------2----------|
D|-----4-----------4-----------4--|-----2-----------2-----------2--|
A|-5-----------5-----------5------|-3-----------3-----------3------|
E|--------------------------------|--------------------------------|
( lead guitar... )
e|--------------------------------|--------------------------------|
B|--------------------------------|--------------------------------|
G|-7-7---7-7---7-7---7-7---7-7----7-7-7---7-7---7-7---7-7---7-7----7
D|--------------------------------|--------------------------------|
A|--------------------------------|--------------------------------|
E|--------------------------------|--------------------------------|

 | 1 - & - 2 - & - 3 - & - 4 - & -| 1 - & - 2 - & - 3 - & - 4 - & -|



___G/B______________________________Bb______________c#_____________
 " Space       between us  with a   tune... "
e|--------------------------------|--------------------------------|
B|--------------------------------|--------------------------------|
G|---------0-----------0----------|---------3---------------6------|
D|-----0-----------0-----------0--|-----3-------3-------6-------6--|
A|-2-----------2-----------2------|-1--------------/4--------------|
E|--------------------------------|--------------------------------|
( lead guitar... )
e|--------------------------------|--------------------------------|
B|--------------------------------|--------------------------------|
G|-7-7---7-7---7-7---7-7---7-7--7-7-7/9-9-9-9/11-11-11-11/12-12-12-12\
D|--------------------------------|--------------------------------|
A|--------------------------------|--------------------------------|
E|--------------------------------|--------------------------------|

 | 1 - & - 2 - & - 3 - & - 4 - & -| 1 - & - 2 - & - 3 - & - 4 - & -|



Lead guitar then copies rhythm guitar as below...


___D________________________________C6add9_________________________
 " Jet             Sil-ver and the  Dolls       of Venus    play their... "
e|--------------------------------|--------------------------------|
B|--------------------------------|--------------------------------|
G|---------2-----------2----------|---------2-----------2----------|
D|-----4-----------4-----------4--|-----2-----------2-----------2--|
A|-5-----------5-----------5------|-3-----------3-----------3------|
E|--------------------------------|--------------------------------|


___G/B______________________________Bb______________C#_____________
 " Mu    -    sic 'specially   for  you... "
e|--------------------------------|--------------------------------|
B|--------------------------------|--------------------------------|
G|---------0-----------0----------|---------3---------------6------|
D|-----0-----------0-----------0--|-----3-------3-------6-------6--|
A|-2-----------2-----------2------|-1--------------/4--------------|
E|--------------------------------|--------------------------------|


Then, acoustic guitar only...


___D_______________A/D______________G/D_____________________A/D____

e|-2-------2-------5-------5------|-3-------3-------3-------5------|
B|-3-------3-------5-------5------|-3-------3-------3-------5------|
G|-2-------2-------6-------6------|-4-------4-------4-------6------|
D|-----0-------0-------0-------0--|-----0-------0-------0-------0--|
A|--------------------------------|--------------------------------|
E|--------------------------------|--------------------------------|



Repeat Intro.


Repeat verse:



___D_______________A/D______________G/D_____________________A/D____
 " Change your faces slowly 'til the morning warms the sky... "


___D_______________A/D______________G/D____________________________
 " All you see is  holy  but  to    be   reborn  all  has  to... "


___Fm______________________________________________________________
 " die... "


___D_______________A/D______________G/D____________________________
 " Children of past summers  we are moving to the end, can you... "


___C5______________________B5_______Bb5_____________________B5_____
 " Wave your hand?                                      And have you... "


___C5______________________B5_______Bb5_____________________B5_____
 " heard the plan?                                     It's time to... "


___C5______________________B5_______Bb5____________________________
 " tune the band.                                      Play on, play...


___A5______A/G_____A/F#____A/E______A5______A/G_____A/F#____A/E____
 " on... "
e|--------------------------------|--------------------------------|
B|--------------------------------|--------------------------------|
G|-2-------2-------2-------2------|-2-------2-------2-------2------|
D|-2-------2-------2-------2------|-2-------2-------2-------2------|
A|-0---0-0-x-------x-------x------|-0---0-0-x-------x-------x------|
E|---------3---3-3-2---2-2-0---0-0----------3---3-3-2---2-2-0---0-0-



Repeat Chorus:


___D________________________________C6add9_________________________
 " Jet              Sil-ver and the Dolls        Of  Venus   span the..."


___G/B______________________________Bb______________c#_____________
 " Space       between us  with a   tune... "


___D________________________________C6add9_________________________
 " Jet             Sil-ver and the  Dolls       of Venus    play their... "


___G/B______________________________Bb______________c#_____________
 " Mu    -    sic 'specially   for  you             Yes they do... "




Guitar solo:  ( over chord sequence below... )


___D________________________________C6add9_________________________

e|--------------------------------|--------------------------------|
B|--------------------------------|--------------------------------|
G|---------2-----------2----------|---------2-----------2----------|
D|-----4-----------4-----------4--|-----2-----------2-----------2--|
A|-5-----------5-----------5------|-3-----------3-----------3------|
E|--------------------------------|--------------------------------|

 | 1 - & - 2 - & - 3 - & - 4 - & -| 1 - & - 2 - & - 3 - & - 4 - & -|



___G/B______________________________Bb______________c#_____________

e|--------------------------------|--------------------------------|
B|--------------------------------|--------------------------------|
G|---------0-----------0----------|---------3---------------6------|
D|-----0-----------0-----------0--|-----3-------3-------6-------6--|
A|-2-----------2-----------2------|-1--------------/4--------------|
E|--------------------------------|--------------------------------|



Ending: massive D chord with feedback and whammy abuse!!

___D_______________________________________________________________

e|--------------------------------|--------------------------------|
B|-3~~~~~~~~~~~~~~~~~~~~^~~~~~~~~~~~~~~~~~~~~~~~~~~^~~~~~~~~~~~~~~~\
G|-2~~~~~~~~~~~~~~~~~~~~^~~~~~~~~~~~~~~~~~~~~~~~~~~^~~~~~~~~~~~~~~~\
D|-0~~~~~~~~~~~~~~~~~~~~^~~~~~~~~~~~~~~~~~~~~~~~~~~^~~~~~~~~~~~~~~~\
A|--------------------------------|--------------------------------|
E|--------------------------------|--------------------------------|
   ( free time... )


Solo to follow soon...



Words and music by Bill Nelson


| /  slide up
| \  slide down
| s  slur ( very rapid slide, sounds like one note! )
| h  hammer-on
| p  pull-off
| ~  vibrato or sustain
| b  bend
| r  relax bend
| pb pre-bend note to pitch
| ^  Whammy bar
| +  harmonic
| x  Mute note
|(0) optional note
Tap to rate this tab
 
# A B C D E F G H I J K L M N O P Q R S T U V W X Y Z