Song name
# A B C D E F G H I J K L M N O P Q R S T U V W X Y Z

Be Your Own Pet - Take That Walk tab

Help us improve GuitareTab! Take a short survey!
the guitar kicks in at the first chorus:

e-|-5---|-4---|-5---|-5---|-5---|-4---|-5---|-x---|
b-|-5---|-5---|-7---|-6---|-5---|-5---|-7---|-9---|
g-|-6---|-6---|-7---|-7---|-6---|-6---|-7---|-9---|
d-|-7---|-6---|-7---|-7---|-7---|-6---|-7---|-9---|
a-|-7---|-4---|-5---|-5---|-7---|-4---|-5---|-7---|
E-|-5---|-----|-----|-----|-5---|-----|-----|-----|



and then the second verse:

d-|-11-11-11-11-11-11-11-11-|-12-12-12-12-12-12-12-12-|-
a-|-12--0-12--0-12--0-12--0-|-10--0-10--0-10--0-10--0-|-
E-|-------------------------|-------------------------|-

d-|-12-12-12-12-12-12-12-12-|-12-12-12-12-12-12-12----
a-|--9--0--9--0--9--0--9--0-|--8--8--8--8--8--8--8--0-
E-|-------------------------|------------------------- x3


then chorus again:

e-|-5---|-4---|-5---|-5---|-5---|-4---|-5---|-x---|
b-|-5---|-5---|-7---|-6---|-5---|-5---|-7---|-9---|
g-|-6---|-6---|-7---|-7---|-6---|-6---|-7---|-9---|
d-|-7---|-6---|-7---|-7---|-7---|-6---|-7---|-9---|
a-|-7---|-4---|-5---|-5---|-7---|-4---|-5---|-7---|
E-|-5---|-----|-----|-----|-5---|-----|-----|-----|


then this little thing:

d-|-7---7--7-5--7----7--|-5--7---10\--------------|-
a-|-7---7--7-5--7----7--|-5--7---10\--------------|-
E-|-5---5--5-3--5----5--|-3--5----8\--------------|-

d-|-7---7--7-5--7----7--|-5--7---10-------9\------|
a-|-7---7--7-5--7----7--|-5--7---10-------9\------|
E-|-5---5--5-3--5----5--|-3--5----8-------7\------| x2



then the verse thing again

d-|-11-11-11-11-11-11-11-11-|-12-12-12-12-12-12-12-12-|-
a-|-12--0-12--0-14--0-12--0-|-10--0-10--0-12--0-10--0-|-
E-|-------------------------|-------------------------|-

d-|-12-12-12-12-12-12-12-12-|-12-12-12-12~------------|
a-|--9--0--9--0-10--0--9--0-|--8--8--8--8~------------|
E-|-------------------------|-------------------------|



chorus...:

e-|-5---|-4---|-5---|-5---|-5---|-4---|-5---|-x---|-
b-|-5---|-5---|-7---|-6---|-5---|-5---|-7---|-9---|-
g-|-6---|-6---|-7---|-7---|-6---|-6---|-7---|-9---|-
d-|-7---|-6---|-7---|-7---|-7---|-6---|-7---|-9---|-
a-|-7---|-4---|-5---|-5---|-7---|-4---|-5---|-7---|-
E-|-5---|-----|-----|-----|-5---|-----|-----|-----|-

e-|-5---|-4---|-5---|-5---|-5---|-4---|-5---|-x---x---|
b-|-5---|-5---|-7---|-6---|-5---|-5---|-7---|-10--9---|
g-|-6---|-6---|-7---|-7---|-6---|-6---|-7---|-10--9---|
d-|-7---|-6---|-7---|-7---|-7---|-6---|-7---|-10--9---|
a-|-7---|-4---|-5---|-5---|-7---|-4---|-5---|-8---7---|
E-|-5---|-----|-----|-----|-5---|-----|-----|---------|



which then brings us to the outro:

d-|-11-11-11-11-11-11-11-11-|-12-12-12-12-12-12-12-12-|-
a-|-12--0-12--0-12--0-12--0-|-10--0-10--0-10--0-10--0-|-
E-|-------------------------|-------------------------|-

g-|-------------------------|--------------------------6~-|
d-|-12-12-12-12-12-12-12-12-|-12-12-12-12-12-12-12-----7~-|
a-|--9--0--9--0--9--0--9--0-|--8--8--8--8--8--8--8--0--x~-|
E-|-------------------------|--------------------------5~-|

THE END
Related for Take That Walk tab