Song name
# A B C D E F G H I J K L M N O P Q R S T U V W X Y Z

Be Your Own Pet - The Kelly Affair tab

-------------------------------------------------------------------------------
			     The Kelly Affair- Be your own pet
-------------------------------------------------------------------------------
Tabbed by:Numb82

Tuning:standard Tuning

Intro/Verses
e|---------------------------------------------------------------------------|
B|---------------------------------------------------------------------------|
G|---------------------------------------------------------------------------|
D|---------------2-------------------------2----2--2-------------------------|
A|--------2--5-----5--2--0-----------2--5----5-------------------------------|
E|-0-0--------------------------0-0------------------------------------------|

Pre-chorus

e|---------------------------------------------------------------------------|
B|---------------------------------------------------------------------------|
G|------------------------------------------------14~-14~--------------------|
D|--------2----2--2------------2-----2-2----------14~-14~--------------------|
A|--2--5-----5-----------2--5-----5---------------12~-12~--------------------|
E|---------------------------------------------------------------------------|

Chorus Part 1- Chord at pre chorus carries to chorus

Everybody here parties all the time...
e|---------------------------------------------------------------------------|
B|----------------------10b-10-10---12---12-----10--10-----------------------|
G|--14~-----9-9-9--12------------------------12--------12--------14~---------|
D|--14~----------------------------------------------------------12~---------|
A|--12~----------------------------------------------------------12~---------|
E|---------------------------------------------------------------------------|

Chorus part 2(post Chorus)
Everybosy here is popping pills..

e|---------------------------------------------------------------------------|
B|---------------------------------------------------------------------------|
G|-9-9-9-9-9---12----7-7-7-7-7--5--------9-9-9--12--14-14-14--12--9----------|
D|-9-9-9-9-9---12----7-7-7-7-7--5--------9-9-9--12--14-14-14--12--9----------|
A|-7-7-7-7-7---10----5-5-5-5-5--3--------------------------------------------|
E|---------------------------------------------------------------------------|

Bridge 1:
e|---------------------------------------------------------------------------|
B|---------------------------------------------------------------------------|
G|---------------9~---------------11------------------14~---------------11---|
D|---------------9~---------------11------------------14~---------------11---|
A|-7-7-7-7-7-7---7~--7-7-7-7-7-7--9------7-7-7-7-7-7--12~--7-7-7-7-7-7--9----|
E|---------------------------------------------------------------------------|

e|---------------------------------------------------------------------------|
B|---------------------------------------------------------------------------|
G|---------------9~----------------11---------------------------------9~-----|
D|---------------9~----------------11----------------7~---------------9~-----|
A|-7-7-7-7-7-7---7~---7-7-7-7-7-7--9----7-7-7-7-7-7--7~--7-7-7-7-7-7--7~-----|
E|---------------------------------------------------5~----------------------|

Bridge 2:

e|---------------------------------------------------------------------------|
B|---------------------------------------------------------------------------|
G|--------------------------------------------------------------------14~----|
D|-----------2-----2-2--|DRUM SOLO|----------2------2-2---------------14~----|
A|---2---5------5-------|---------|----2--5------5-----------2-2-2-2--12~----|
E|---------------------------------------------------------------------------|

NOTE:Every time The Line "It could be dangerous Living in this valley!"  the chords 
chord at fret 12 or A5 is played.
Tap to rate this tab
# A B C D E F G H I J K L M N O P Q R S T U V W X Y Z