Song name
# A B C D E F G H I J K L M N O P Q R S T U V W X Y Z

Be Your Own Pet - Hillmont Avenue tab

e|-X------------------------------------------------------------------|
B|-X------------------------------------------------------------------|
G|-X------------------------------------------------------------------|
D|-X------------------------------------------------------------------|
A|-2------------------------------------------------------------------|
E|-0------------------------------------------------------------------|


e|--77--77--77--446\4---77--77--77--44/6-------------------------------------|
B|--66--66--66--557\5---66--66--66--55/7-------------------------------------|
G|--66--66--66--446\4---66--66--66--44/6-------------------------------------|
D|---------------------------------------------------------------------------|
A|---------------------------------------------------------------------------|
E|---------------------------------------------------------------------------|

                                                                       x4

e|---------------------------------------------------------------------------|
B|--666666666666-------------------------------------------------------------|
G|--666666666666-55-777------------------------------------------------------|
D|--666666666666-66-888------------------------------------------------------|
A|--444444444444-66-888------------------------------------------------------|
E|---------------44-666------------------------------------------------------|

                                                                       x4   


e|--77--77--77--446\4---77--77--77--44/6-------------------------------------|
B|--66--66--66--557\5---66--66--66--55/7-------------------------------------|
G|--66--66--66--446\4---66--66--66--44/6-------------------------------------|
D|---------------------------------------------------------------------------|
A|---------------------------------------------------------------------------|
E|---------------------------------------------------------------------------|

                                                                       x2


e|---------------------------------------------------------------------------|
B|---------------------------------------------------------------------------|
G|---------------------------------------------------------------------------|
D|-7777-25555----------------------------------------------------------------|
A|-7777-25555----------------------------------------------------------------|
E|-5555-03333----------------------------------------------------------------|

                                                                       x4

e|-------3333----------------------------------------------------------------|
B|------03333----------------------------------------------------------------|
G|-6666-14444----------------------------------------------------------------|
D|-7777-25555----------------------------------------------------------------|
A|-7777-25555----------------------------------------------------------------|
E|-5555-03333----------------------------------------------------------------|

                                                                       x4

e|---------------------------------------------------------------------------|
B|--666666666----------------------------------------------------------------|
G|--666666666----------------------------------------------------------------|
D|--666666666----------------------------------------------------------------|
A|--444444444----------------------------------------------------------------|
E|---------------------------------------------------------------------------|
                                                                         

e|---------------------------------------------------------------------------|
B|--666666666666-------------------------------------------------------------|
G|--666666666666-55-777------------------------------------------------------|
D|--666666666666-66-888------------------------------------------------------|
A|--444444444444-66-888------------------------------------------------------|
E|---------------44-666------------------------------------------------------|

                                                                       x4 

e|---------------------------------------------------------------------------|
B|---------------------------------------------------------------------------|
G|---------------------------------------------------------------------------|
D|-7777-25555----------------------------------------------------------------|
A|-7777-25555----------------------------------------------------------------|
E|-5555-03333----------------------------------------------------------------|

                                                                       x2

e|---------------------------------------------------------------------------|
B|--666666666666-------------------------------------------------------------|
G|--666666666666-55-777------------------------------------------------------|
D|--666666666666-66-888------------------------------------------------------|
A|--444444444444-66-888------------------------------------------------------|
E|---------------44-666------------------------------------------------------|

                                                                       x4 



THE END!
Tap to rate this tab
# A B C D E F G H I J K L M N O P Q R S T U V W X Y Z