Song name
# A B C D E F G H I J K L M N O P Q R S T U V W X Y Z

Be Your Own Pet - Steal tab

Help us improve GuitareTab! Take a short survey!
-------------------------------------------------------------------------------
			     STEAL - Be your own pet
-------------------------------------------------------------------------------
Tabbed by:Pinkbowtie
Email:halflingsleaf@hotmail.com

Tuning:EADGBE

Its only a B-side to "extra extra" but this song completely rocks,and BYOP are
the best band to come out for a very long time! All the lyrics are completley
guessed, if you know the lyrics or can think of any corrections just email me.

Bass intro for 4 bars


G|---------------------------------------------------------------------------|
D|---------------------------------------------------------------------------|
A|-7-7-7-7-7-7-7-7-----------------------------------------------------------|
E|-----------------5-5-5-5-5-5-5-5--3-3-3-3-3-3-3-3--5-5-5-5-5-5-5-5---------|

Guitar comes in, guitaring usually emphasises the higher strings so try and hit the G,B,e strings harder.

Verse
"You take a part of me when you take it all away"
e|--9-9-9-9-9-9-9-9-9-9-9-9-9-9-9-9------------------------------------------|
B|--9-9-9-9-9-9-9-9-9-9-9-9-9-9-9-9------------------------------------------|
G|--9-9-9-9-9-9-9-9-9-9-9-9-9-9-9-9------------------------------------------|
D|--9-9-9-9-9-9-9-9-9-9-9-9-9-9-9-9------------------------------------------|
A|--7-7-7-7-7-7-7-7-7-7-7-7-7-7-7-7------------------------------------------|
E|---------------------------------------------------------------------------|
"you dont let me be, just steal me away
e|-7-7-7-7-7-7-7-7-B-7-7-7-7-7-7-7-------------------------------------------|
B|-7-7-7-7-7-7-7-7-R-7-7-7-7-7-7-7-------------------------------------------|
G|-7-7-7-7-7-7-7-7-E7-7-7-7-7-7-7--------------------------------------------|
D|-7-7-7-7-7-7-7-7-A-7-7-7-7-7-7-7-------------------------------------------|
A|-7-7-7-7-7-7-7-7-K-7-7-7-7-7-7-7-------------------------------------------|
E|-5-5-5-5-5-5-5-5-!-5-5-5-5-5-5-5-------------------------------------------|
                      REPEAT

Chorus, strum down on the off beat (i think!)
 " Steal me away, Steal me away, I wanna go without a sound"
e|-9-9-9-9--------7-7-7-7--------5-5-5-5----7-7-7-7--------------------------|
B|-9-9-9-9--------7-7-7-7--------5-5-5-5----7-7-7-7--------------------------|
G|-9-9-9-9--------7-7-7-7--------5-5-5-5----7-7-7-7--------------------------|
D|-9-9-9-9--------7-7-7-7--------5-5-5-5----7-7-7-7--------------------------|
A|-7-7-7-7--------7-7-7-7--------5-5-5-5----7-7-7-7--------------------------|
E|----------------5-5-5-5--------3-3-3-3----5-5-5-5--------------------------|

" Steal me away, Steal me away, I wanna go don't let me down"
e|-9-9-9-9--------7-7-7-7--------5-5-5-5----7-7-7-7--------------------------|
B|-9-9-9-9--------7-7-7-7--------5-5-5-5----7-7-7-7--------------------------|
G|-9-9-9-9--------7-7-7-7--------5-5-5-5----7-7-7-7--------------------------|
D|-9-9-9-9--------7-7-7-7--------5-5-5-5----7-7-7-7--------------------------|
A|-7-7-7-7--------7-7-7-7--------5-5-5-5----7-7-7-7--------------------------|
E|----------------5-5-5-5--------3-3-3-3----5-5-5-5--------------------------|

Guitar break, with no bass. It basically plays the same chords as the verse
but there is a little riff while the E chord is being played, its a bit like this
                               Bass comes back in here   
e|--9-9-9-9-------9-9-9-9----------7-7-7-7-7-7-7-7-B-7-7-7-7-7-7-7-----------|
B|--9-9-9-9-9-7---9-9-9-9-9-7------7-7-7-7-7-7-7-7-R-7-7-7-7-7-7-7-----------|
G|--9-9-9-9----9--9-9-9-9----9-----7-7-7-7-7-7-7-7-E-7-7-7-7-7-7-7-----------|
D|--9-9-9-9-------9-9-9-9----------7-7-7-7-7-7-7-7-A-7-7-7-7-7-7-7-----------|
A|--7-7-7-7-------7-7-7-7----------7-7-7-7-7-7-7-7-K-7-7-7-7-7-7-7-----------|
E|---------------------------------5-5-5-5-5-5-5-5-!-5-5-5-5-5-5-5-----------|

Verse 2 (same chords different words)

"you've taken a part of me, you've taken it all away"
Its just like being free, now steal me away" X2

Chorus

Then it breaks down, and builds up which is:
e|-9-9-9-9-9-9-9-9--9-9-9-9-9-9-9-9--7-7-7-7-7-7-7-7-9-9-9-9-9-9-9-9---------|
B|-9-9-9-9-9-9-9-9--9-9-9-9-9-9-9-9--7-7-7-7-7-7-7-7-9-9-9-9-9-9-9-9---------|
G|-9-9-9-9-9-9-9-9--9-9-9-9-9-9-9-9--7-7-7-7-7-7-7-7-9-9-9-9-9-9-9-9---------|
D|-9-9-9-9-9-9-9-9--7-7-7-7-7-7-7-7--5-5-5-5-5-5-5-5-7-7-7-7-7-7-7-7---------|
A|-7-7-7-7-7-7-7-7-----------------------------------------------------------|
E|---------------------------------------------------------------------------|
             REPEAT

Then             Back to chorus "steal me away" etc.
e|-9-9-9-9-------------------------------------------------------------------|
B|-9-9-9-9-9-7---------------------------------------------------------------|
G|-9-9-9-9----9--------------------------------------------------------------|
D|-9-9-9-9-------------------------------------------------------------------|
A|-7-7-7-7-------------------------------------------------------------------|
E|---------------------------------------------------------------------------|

Back to chorus X2 

and thats it! If you have any corrections just email me, BYOP rock, and i am
trying to do tabs others songs, so bare with me.

http://www.infinitycat.com/byop.html
Related for Steal tab