Song name
# A B C D E F G H I J K L M N O P Q R S T U V W X Y Z

Be Your Own Pet - Fire Department tab

-------------------------------------------------------------------------------
Tabbed by:Cem Ibrahim
Email:Cem_ibrahim@hotmail.com

Tuning: standard

Intro:
e|-------------------------------------------------|
B|-------------------------------------------------|
G|-------------------------------------------------|
D|-------------------------------------------------|
A|------------------------9--9--9-9--9/2--2--5-5--4|
E|-7--7--7--7\0--0--3--2--7--7--7-7--7/0--0--3-3--2|

Verse: (off beat up-strokes)
e|-7---------------|
B|-7-----0---------|
G|-7-----1---------|
D|-9-----2-----5--4|
A|-9-----2-----5--4|
E|-7-X4--0-X2--3--2| X2

Chorus
e|-----------------7----|   -8-----7-----8------7--7--8--8-|
B|-0---------------7----|   -8-----7-----8------7--7--8--8-|
G|-1---------------7----|   -8-----7-----8------7--7--8--8-|
D|-2----5--7----5--9----|   -10----9-----10-----9--9--10-10|
A|-2----5--7----5--9----|   -10----9-----10-----9--9--10-10|
E|-0-X4-3--5-X5-3--7-X16|X2 -8-X16-7-X16-8-X16--7--7--8--8-|

Then repeat verse & chorus.
Bridge

e|---------------------------------------------------------------------------------|
B|-------------------------------------------------------------------------00000000|
G|-------------------------------------------------------------------------11111111|
D|--2-2-2-2---------------22--22--22--22--------------------22--22--22--22-22222222|
A|-3-3-3-3---7-7-7-7----33--33--33--33-----77--77--77--77-33--33--33--33---22222222|
E|----------0-0-0-0-X2-------------------00--00--00--00--------------------00000000|

Outro:
e|---------------------------------------      ---------------------|
B|---------------------------------------      00000000-------------|
G|---------------------------------------      11111111-------------|
D|------------------------------------22-      22222222-5555-4444-22|
A|-22-0122-0122-0122-2----------------22-      22222222-5555-4444-22|
E|--------------------00-00-033-22-X2-00-(bass)00000000-3333-2222-00|

Order:
Intro
Verse
Chorus
Verse
Chorus
Bridge
Chorus X2
Outro

| /  slide up
| \  slide down
| h  hammer-on
| p  pull-off
| ~  vibrato
| +  harmonic
| x  Mute note
Tap to rate this tab
 
# A B C D E F G H I J K L M N O P Q R S T U V W X Y Z