Song name
# A B C D E F G H I J K L M N O P Q R S T U V W X Y Z

Be Your Own Pet - October First Account tab

Be your own Pet are a great band and this is a quality song of theirs. This is my first 
though so sorry if its crap. For this tab I'm just showing the chords because I can't be 
to show every strum of every chord.


Intro:
e----------------------------------------|
B----------------------------------------|
G------------------------1-2-4-2-1-------|
D--------1-2-4-2-1-----2-----------2-----|
A------2-----------2--0------------------|
E----0-----------------------------------|

Verse:
e--0-----0----------|
B--0-----2----------|
G--1-----2----------|         Just strum these chords till the next part
D--2-----2----------|
A--2-----0----------|
E--0-----x----------|

Pre chorus
e--x--x--x--x-I-xslide-x-------------------------I--7-7-------|
B--x--x--x--x-I-xslide-x-------------------------I-10-9-------|
G--6--4--6--9-I-11slide-13--on the last one do this -I-9-9----|
D--6--4--6--9-I-11slide-13--instead of the slide part-I-9-9---|
A--4--2--4--7-I-9slide-11------------------------I-7-7--------|
E--x--x--x--x-I-xslide-x--------------------------I-x-x-------|

Chorus:
e--7--5--3--0--I------I---3---|
B--7--5--3--0--I------I-----5-|
G--8--6--4--1--I------I-------|
D--9--7--5--2--I------I-------|
A--9--7--5--2--I------I-------|
E--7--5--3--0--I--3p0-I-------|

Breakdown:
e--0--------------------0------------------7-------------------------0----------|
B--0--------------------0------------------9-------------------------0----------|
G--1--------------------2------------------9-------------------------1----------|
D--2-x2-for a while-------2-x2- then strum this-9- and then go back--------2----|
A--2---- and then go to---2----- for a bit------7- to verse and finish on-----2-|
E--0--------------------x------------------x-------------------------0----------|
Tap to rate this tab
# A B C D E F G H I J K L M N O P Q R S T U V W X Y Z